Nine In The Afternoon

Panic At The Disco

after piano [----------------------------------------------]


            [--------------------------BD-BU---------------]


            [--------------------0----7--9--7----5---------]


  intro     [----------------------------------------------]


            [----------------------------------------------]


            [---/3-----------------------------------------]


 verse     [----------------------------------------------]              


           [---------------BU-BD--------------------------]


           [--BU-----5----7--9--7--5----------------------]


           [-5--7-------------------------5---------------]


           [----------------------------7---3-------------]


           [----------------------------------------------]


           [--------------------------]


           [--------------------------]


 bridge    [--------5--5-7----5-------]


           [---5h7-----------------5h7] x3


           [--------------------------]


           [--------------------------]


           [--------------------------]


           [-5-5-5-5-5-5-5------------]


           [---------------7--5--7----]


           [--------------------------]


           [--------------------------]


           [--------------------------]


           [----------------------------------------------]


           [---------BU-------BD--------------------------]


           [--5-------------6---5-----0-0-----2-----------]


           [--------------------------2-2-----3----2-3----]


           [--------------------------2-2-----3----2-3----]


           [--------------------------0-0-----1----0-1----]
           [-0-----3-----0----0----1----------------------]
           [-1-----3-----1----0----1----------------------]
  chorus   [-0-x6--0-x2--2-x8-0-x8-2-x8-------------------]
           [-2-----0-----2----2----3----------------------]
           [-3-----2-----0----2----3----------------------]
           [------------------0----1----------------------]
           [----------------------------------------------]
           [------------------------------------------5---]
 chorus 2  [--5-----------5--------4--------5------5------]
           [----------------------------------------------]
           [----------------------------------------------]
           [----------------------------------------------]
           [-5h3------------------------------------------]
           [---------------------------------BU-BD--------]
           [--------------4------5----------7--9--7----5--]
           [----------------------------------------------]
           [----------------------------------------------]
           [----------------------------------------------]