Chordie logo

Floods   Pantera



PANTERA-Floods

Drop to D tuning then drop all strings 1/2 step

main verse riff -- acoustic
Eb||------------------------------------------||
Bb||------------------------------------------||
Gb||.----------------------------------------.||
Db||.----0--4--3---4--------4--0--3--4--0----.||
Ab||--2---------------1--------------------1--||
Db||------------------------------------------||

"Wash away us all..." -- stomp on the distortion
Eb|---------------------------|
Bb|-----------------------3---|
Gb|-----------------------2---|
Db|-----------4-----------0---|
Ab|--------5--------5-----0---|
Db|-0--/4--------3-----4--0---|

here's a stab at the acoustic chords:

"then throughout..."                                  "cold hearted..." 
"and at night..."                                     "wash away..."
Eb|----------------------------------------------------------0--|
Bb|--2-----3---------2-----3----------2-----3----------7-----3--|
Gb|--4-----3---------4-----3----------4-----3----------7-----2--|
Db|--4-----5---------4-----5----------4-----5----------7-----0--|
Ab|--2-----5---------2-----5----------2-----5----------5-----0--|
Db|----------------------------------------------------------0--|
        strum (listen to it to get the correct pattern)

INTERLUDE

the heavy interludes seem to be a mix of these riffs:

RIFF 1
Eb|--------------------------------------------------------|
Bb|--------------------------------------------------------|
Gb|--------------------------------------------------------|
Db|--2\0/2---2\0/2---2\0/2---2\0/2---2\0/2--3--2--0////5^--|
Ab|--2\0/2---2\0/2---2\0/2---2\0/2---2\0/2--3--2--0////5^--|
Db|--2\0/2---2\0/2---2\0/2---2\0/2---2\0/2--3--2--0////5^--|
							bend up
RIFF 2
Eb|--------------------------------------------------------| I think Dime uses his
Bb|--------------------------------------------------------| Tremelo here, to drop 
Gb|--------------------------------------------------------| the opening power chord
Db|--0\_/0---0\_/0---0\_/0---0\_/0---0\_/0--1--0--0////3^--| or a hammer on pull off
Ab|--0\_/0---0\_/0---0\_/0---0\_/0---0\_/0--1--0--0////3^--| on the first or second 
Db|--0\_/0---0\_/0---0\_/0---0\_/0---0\_/0--1--0--0////3^--| fret
                        			  bend up full
                               		  and release

play RIFF 1, then RIFF 2, then RIFF 1, then RIFF 2 without final
0 -> 3 slide.  Insert this riff instead:

Eb|------------------------------|
Bb|------------------------------|
Gb|------------------------------|
Db|--0--1--2--3------3--0--3--2--|
Ab|--0--1--2--3------3--0--3--2--|


Important: The song above is NOT stored on the Chordie server. The original song is hosted at www.guitaretab.com. Chordie works as a search engine and provides on-the-fly formatting. Chordie does not index songs against artists/composers will. To remove this song please click here.

This song is displayed as text-only. Transposing and tuning is only available for chordpro-songs.

Login - add to songbook

Rating click stars to rate

Layout
Accuracy

SHARE PAGE  

You need to log in to post comments