Princess

Paolo Santos

e|---------------------|-------------------|

B|--0----0---0--0------|--0-------0--------|
G|-1--------1----------|-1-------1---------|
D|----4-2------4-------|----4-2------4-----|
A|-0--------0----------|-0-------0---------|
E|---------------------|-------------------|
e|---0------0----------|-------------------|
B|-2--0---2--0---------|--0-------0--------|
G|-----2---------------|-1-------1---------|
D|---------------------|----4-2------4-----|
A|-0------0------------|-0-------0---------|
E|---------------------|-------------------|

 AM7
 The walls of my castle speak
 F#m7
 They tell me you're not here
 DM7
 The heart of my kingdom weeps
 AM7
 Knowing you're nowhere near

Pre-Chorus 1:
 DM7
 Give me one more chance
 F#m7
 To be with you
 Bm7Esus4E
 To prove my love is forever true
 DM7F#m7
 But you're miles away, so far away
 Bm7Esus4E
 Hoping that you would stay

Chorus:
 AM7
 My princess has left me
 F#m7
 I am so empty,
DM7 Bm7 (Cm7...Bm7)
I'm all alone
 C#m7
 My princess has left me
F#m7 Bm7 (Cm7...Bm7)
I have nobody to call my own

Verse2:
 AM7
 Sitting in my own room
 F#m7
 Humming a lonely tune
 DM7
 staring up at that moon
 AM7
 wondering if you'd be home soon

Pre-Chorus 2:
 DM7
 Have i done you wrong?
 F#m7
 that you went away
 Bm7Esus4E
 would do anything to make you stay
 DM7F#m7
 thinking of you.. day and night
 Bm7Esus4E
 wanting to make things right

(repeat chorus)

Adlib:(1st guitar followed with 2nd guitar playing the intro)
e|--------9h10/9------------------------------------------|
B|-9h10p9----------------------------------------5/7-4----|
G|--------------7/9-8910-10p9-8-8h9-10/11-12-13-----------|
D|--------------------------------------------------------|
A|--------------------------------------------------------|
E|--------------------------------------------------------|
e|-----------------------------9h10/9---8h9-8h10-11-------|
B|-----4----------------9h10p9----------------------------|
G|-5/7-------8-9--10-11-----------------------------------|
D|-------5/7----------------------------------------------|
A|--------------------------------------------------------|
E|--------------------------------------------------------|


(repeat pre-chorus 1)
(repeat chorus)

Coda:
 AM7
 My princess has left me
 AM7
 My princess has left me
 F#m7
 I am so empty
 AM7
 My princess has left me

Chords used:

AM7: x02120
DM7: x00222
F#m7: 242222
Bm7: 224232
C#m7: 446454
Cm7: 335343

Hndi poh aq cgurdo dun s adlib kya kung meron kaung suggestion or comment plz email
at bd_dragon125@yahoo.com...pki rate n lng poh...

Am7 Bm7 C#m7 Dm7 E Esus4 F#m7
variations - click chord images
Transpose chords:
Tuning:
Cool service:
View: Size:
A  A  A
Rating:
Layout:
  • Currently 2.8/5 Stars.
  • 1
  • 2
  • 3
  • 4
  • 5
 
Accuracy:
  • Currently 3.6/5 Stars.
  • 1
  • 2
  • 3
  • 4
  • 5
 
click stars to rate
Chordie recommends:
Check out JamPlay.com for online video guitar lessons
Songbook:
Login to add this song to your songbook
Support the artist
Preview/buy this song
MSN Music
Why this non-profit ad?

 
login to add comments/video/corrections