eToCache5 = ""; ?> Misery Business Acoustic by Paramore - guitar chords, guitar tabs and lyrics - chordie

Misery Business Acoustic

Paramore

 Intro + Verses 1 & 2
e|--------------------------------|
B|--------------------------------|
G|--------------------------------|
D|--------------------------------|
A|--------0--2--0--2--------------|
E|---0--0-------------0--0--0--0--|


I'm in the business of misery,
Let's take it from the top.
She's got a body like an hourglass that's ticking like a clock.
It's a matter of time before we all run out,
When I thought he was mine she caught him by the mouth.

I waited eight long months,
She finally set him free.
I told him I can't lie he was the only one for me.
Two weeks and we had caught on fire,
She's got it out for me,
But I wear the biggest smile.

 Pre-Cborus
 EmC
 Cborus:
 EmCA2
Whoa, I never meant to brag
 GD
But, I got him where I want him now.
 EmCA2
Whoa, it was never my intention to brag
 GD
To steal it all away from you now.
 EmC
      But god does it feel so good,
 Em
Cause I got him where I want him now.
 C
And if you could then you know you would.

 EmC
 Cause god it just feels so,

e|-------------------------------------------------------|
B|-------------------------------------------------------|
G|-------------------------------------------------------|
D|-------------------------------------------------------|
A|--------0--2--0--2--------------------0--2--0--2-------|
E|---0--0-------------0--0--0—0----0--0------------------|


It just feels so good… Em X4

 Intro

Second chances they don't ever matter, people never change.
Once a whore you're nothing more, I'm sorry, that'll never change.
And about forgiveness, we're both supposed to have exchanged.
I'm sorry honey, but I'm passing up, now look this way.
Well there's a million other girls who do it just like you.
Looking as innocent as possible to get to who,
They want and what they like it's easy if you do it right.

e|--------------------------------------------------------------------|
B|--------------------------------------------------------------------|
G|--------------------------------------------------------------------|
D|--------------------------------------------------------------------|
A|--------0--2--0--2--------------------0--2--0--2--3-3-3-3-2-2-2-2---|
E|---0--0-------------0--0--0—0----0--0-------------------------------|


Well I refuse, I refuse, I refuse!…

 Pre-Cborus
 EmC
 Cborus:
 EmCA2
Whoa, I never meant to brag
 GD
But, I got him where I want him now.

 EmCA2
Whoa, it was never my intention to brag
 GD
To steal it all away from you now.
 EmC
       But god does it feel so good,
 Em
Cause I got him where I want him right now.
 C
And if you could then you know you would.
 EmC
 Cause god it just feels so,

 EmCA2GD
 It just feels so.
It just feels so good.
I watched his wildest dreams come true
Not one of them involving you
Just watch my wildest dreams come true
Not one of them involving.

 Bridge
 DGA2CEmD
 EmCA2
Whoa, I never meant to brag,
 GD
but I got him where I want him now.
 EmCA2
Whoa, it was never my intention to brag
 GD
To steal it all away from you now.
 EmC
      But god does it feel so good,
 Em
Cause I got him where I want him now.
 C
And if you could then you know you would.
 EmC
 Cause god it just feels so….

e|--------------------------------|
B|--------------------------------|
G|--------------------------------|
D|--------------------------------|
A|--------0--2--0--2--------------|
E|---0--0-------------0--0--0--0--|
e|-------------------------------------------------------|
B|-------------------------------------------------------|
G|-------------------------------------------------------|
D|-------------------------------------------------------|
A|--------0--2--0--2--------------------0--2--0--2-------|
E|---0--0-------------0--0--0—0----0--0------------------|


It just feels so good… Em X4


A2 C D Em G
variations - click chord images
Transpose chords:
Tuning:
Cool service:
View: Size:
A  A  A
Rating:
Layout:
  • Currently 2.8/5 Stars.
  • 1
  • 2
  • 3
  • 4
  • 5
 
Accuracy:
  • Currently 2.9/5 Stars.
  • 1
  • 2
  • 3
  • 4
  • 5
 
click stars to rate
Chordie recommends:
Get acoustic guitar lessons and electric guitar lessons at JamPlay.com
Songbook:
Login to add this song to your songbook
Support the artist
Preview/buy this song
MSN Music
Why this non-profit ad?

 
login to add comments/video/corrections