Grostadtleben

Park

 DDsus2BmGADAEmBm
Intro (clean)
=====
2x D Dsus2 1X Bm
E------------------------------------|--------------------------------|
B------------------------------------|------3---------3---------------|
G------7---7---7---7---7---7---7---7-|---4---4-4---4---4-4------------|
D-----7-7-7-7-7-7-7-7-7-7-7-7-7-7-7-7|--4-4---4---4-4---4-------------|
A----5---5---5---5---4---4---4---4---|-2---------2--------------------|
E------------------------------------|--------------------------------|


Intro (clean)
======
 GA
E---------------------------------------------------------------------|
B-------3---------5---------------------------------------------------|
G----4---4-4-----6-6--------------------------------------------------|
D---5-5---5-----7---7-------------------------------------------------|
A---------------------------------------------------------------------|
E--3----------5-------------------------------------------------------|


Chorus (verzerrt)
======
 DA
E---10-10-10-10-10-10-10-10-10-10-10-|-5-5-5-5-5-5-5-5-5-5-5----------|
B---12-12-12-12-12-12-12-12-12-12-12-|-5-5-5-5-5-5-5-5-5-5-5----------|
G---11-11-11-11-11-11-11-11-11-11-11-|-6-6-6-6-6-6-6-6-6-6-6----------|
D---12-12-12-12-12-12-12-12-12-12-12-|-7-7-7-7-7-7-7-7-7-7-7----------|
A---12-12-12-12-12-12-12-12-12-12-12-|-7-7-7-7-7-7-7-7-7-7-7----------|
E---10-10-10-10-10-10-10-10-10-10-10-|-5-5-5-5-5-5-5-5-5-5-5----------|


 EmBm
E---7-7-7-7-7-7-7-7-7-7-7-|--7-7-7-7-7-7-7-7-7-7-7--------------------|
B---8-8-8-8-8-8-8-8-8-8-8-|--7-7-7-7-7-7-7-7-7-7-7--------------------|
G---9-9-9-9-9-9-9-9-9-9-9-|--7-7-7-7-7-7-7-7-7-7-7--------------------|
D---9-9-9-9-9-9-9-9-9-9-9-|--9-9-9-9-9-9-9-9-9-9-9--------------------|
A---7-7-7-7-7-7-7-7-7-7-7-|--9-9-9-9-9-9-9-9-9-9-9--------------------|
E-------------------------|--7-7-7-7-7-7-7-7-7-7-7--------------------|


Intro 1X Wiederholen
Chorus 5x Wiederholen

Transcribed by Sascha

















A Bm D Dsus2 Em G
variations - click chord images
Transpose chords:
Tuning:
Cool service:
View: Size:
A  A  A
Rating:
Layout:
  • Currently 3.3/5 Stars.
  • 1
  • 2
  • 3
  • 4
  • 5
 
Accuracy:
  • Currently 3/5 Stars.
  • 1
  • 2
  • 3
  • 4
  • 5
 
click stars to rate
Chordie recommends:
Learn to play guitar with video-based, online guitar lessons at JamPlay.com
Songbook:
Login to add this song to your songbook
Support the artist
Preview/buy this song
MSN Music
Why this non-profit ad?

 
login to add comments/video/corrections