Guitar Tabs, Chords and Lyrics


Guns For Show Knifes For A Pro   Parkway Drive



Parkway Drive - Guns For Show Knifes For A Pro
Tuning: drop B

Intro:

Repeat x2
||------------------------------------|
||------------------------------------|
||11---12---11---9---11---12---11---9-|
||---9----9----9---9----9----9----9---|
||------------------------------------|
||------------------------------------|

YIPPIE KIYAA MOTHER F@#%ER

Breakdown:

Repeat x4
||--------------------------------------------------------|
||--------------------------------------------------------|
||-----9h12p9-------------9h12p9-----9h12p9-8h11p8-7h10p7-|
||--------------------------------------------------------|
||--------------------------------------------------------|
||-0-0--------0-0-0---0-0--------0-0----------------------|

Fill:

Repeat x1
||------------------------------------------------------|
||------------------------------------------------------|
||11---12---11---9---11---12---14---16------------------|
||---9----9----9---9----9----9----9---------------------|
||------------------------------------------------------|
||-------------------------------------0~-------SLIDE---|

Riff 1:

Repeat x4
||------------------------------------------------------|
||------------------------------------------------------|
||----------11-13---------------------------------------|
||----------------14-11--------11-11-14-14-13-13-9-9-13-|
||------------------------------------------------------|
||-00-000-0-------------00-000--------------------------|

Breakdown:

Repeat x4
||------------------------------------------------------------|
||------------------------------------------------------------|
||------------------------------------------------------------|
||---------------------------------------5h8p5h8---5h8p5h8----|
||-----------------------------------------------5---------7--|
||0-----01-00-0000-01-00-0000-01-00-0000----------------------|

Fill:

Repeat x 4 (note: not 100% if this riff is correct)
||--------------------------------|
||--------------------------------|
||--------------------------------|
||-5h8p5h8---5h8p5h8---5h8p5h8----|
||---------5---------7---------4--|
||--------------------------------|

Breakdown:

Repeat till end of song
||-----------------------------------------------------------------------|
||-----------------------------------------------------------------------|
||----------------------9-9-9-9-11-11-11-11-8-8-8-8----------------------|
||-----------------------------------------------------------------------|
||-----------------------------------------------------------------------|
||-00--0-00---0-00--0-0-----------------------------00--0-00---0-00--0-0-|



Important: The song above is NOT stored on the Chordie server. The original song is hosted at www.guitaretab.com. Chordie works as a search engine and provides on-the-fly formatting. Chordie does not index songs against artists'/composers' will. To remove this song please click here.

This song is displayed as text-only. Transposing and tuning is only available for chordpro-songs.

Login - add to songbook

Rating click stars to rate

Layout
Accuracy

SHARE PAGE  




You need to log in to post comments