Guitar Tabs, Chords and Lyrics


Cruise  Parkway Drive

-------------------------------------------------------------------------------



-------------------------------------------------------------------------------

    [C]              [G]          [F]         [C]         [Am]        [G]           [F]        [C]             
e|------------------0--3-|--5--------3-----|--8---8---7--5----|--5-------3-0---------|
B|--1-------1-----3------|-------6------1--|---------------8--|-------6------1----3--|
G|------0----------------|-----5-----------|----9-----7-------|-----5----------0--0--|
D|----2-------2----------|--7--------------|------------------|--7-------------------|
A|--3-----3--------------|-----------3-----|------------------|----------3-----------|
E|----------------3------|-----------------|------------------|-------------------3--|

--Verse 1 (intro part plays)

--Fill:

    [F]        [C]    [F]        [C]               [G]                                               
e|--5-------3---1----|--0-----------------|
B|-------6--1---1----|--1--------1-----3--|
G|-----5----------2--|-------0---------0--|
D|--7----------------|-----2-------2------|
A|----------3--------|--3------3----------|
E|--------------1----|-----------------3--|


--Verse 2


--Chorus (guitar plays chords with same picking pattern as intro:

[Am]Saving our [G]children, [F]saving our [C]land

[Dm]protecting us [C]from things we [G]can't understand
[Am]power and [G]glory [F]justice and [C]right
[Dm]I'm sure that [C]you'll help us [G]to see the light
and the [Am]love that you [G]radiate [C]will keep us [F]warm
and help us to [C]weather the [G]storm.
--Verse 3

--Fill as before.


--Chorus (repeated a couple of times).


--Crazy reggae section (3:28). Strummed chords:

     [Am]            [G]            [F]         [C]            [F]         [C]            [G]               
e|---8--8---8----7-7--7--|---5-5--5---3-3--3--|------------3-3--3--|---7-7--7---7-7--7--|
B|---10-10--10---8-8--8--|---6-6--6---5-5--5--|---6-6--6---5-5--5--|---8-8--8---8-8--8--|
G|---9--9---9----7-7--7--|---5-5--5---5-5--5--|---5-5--5---5-5--5--|---7-7--7---7-7--7--|
D|---10-10--10---9-9--9--|---7-7--7-----------|---7-7--7-----------|---9-9--9---9-9--9--|
A|-----------------------|--------------------|--------------------|--------------------|
E|-----------------------|--------------------|--------------------|--------------------|


These chords are repeated with various different offbeat rhythms.
Listen to recording to get a feel for it.


| / slide up
| \ slide down
| h hammer-on
| p pull-off
| ~ vibrato
| + harmonic
| x Mute note
===============================================================================

Important: The song above is NOT stored on the Chordie server. The original song is hosted at www.guitaretab.com. Chordie works as a search engine and provides on-the-fly formatting. Chordie does not index songs against artists'/composers' will. To remove this song please click here.

Text color:
Chord color:
Chord grids: 
Font size:    
Page size: 

Am C Dm F G
variations - click chord images

Login - add to songbook

Transpose chords

Tuning

Rating click stars to rate

Layout
Accuracy

SHARE PAGE  




You need to log in to post comments