Chordie logo


Your Song  Parokya Ni Edgar

--------------------------------------------------------------------------------



  and fore[F#m]ver lay out in fron[D]t of me
x02200 E
one smile then I died
  only t[F#m]o be revived by you

VERSE II

     [1]D                                 [2]x02200
1 * * * 2 * * * 3 * * * 4 * * * 1 * * * 2 * * * 3 * * * 4 * * *
  e|-2---s-------2h3---2--s----------|-0-s---------0----s------0-0-----|
  B|-3----t------3-----3----t--------|-0---t-------0h2---t-----2-0-----|
  G|-2-----r-----2-----2------r------|-2-----r-----2------r----2-2-----|
  D|-0------u----0-----0--------u----|-2-------u---2-------u---2-2-----|
  A|---------m--------------------m--|-0---------m-0--------m--0-0-----|
  E|---------------------------------|---------------------------------|

there I was thought I had

     [E]1 * * * 2 * * * 3 * * * 4 * * *
  e|-0-s---------0----s--------------|
  B|-0---t-------0-------t-----------|
  G|-1-----r-----1h2--------r--------|
  D|-2-------u---2-------------u-----|
  A|-2---------m-2----------------m--|
  E|-0-----------0-------------------|

everything figured out

  [F#m]     goes[D] to show just how much I know
  [2]   'bout the way[D] life plays out

     [E]1 * * * 2 * * * 3 * * * 4 * * *   [E]1 * * * 2 * * * 3 * * * 4 * * *
  e|-0--s--------------------0-------|-0-----------------------0-s-----|
  B|-0------t----------------0-------|-0-----------------------0--t----|
  G|-1----------r------------1h2-----|-1-----------------------1---r---|
  D|-2--------------u--------2-------|-2-----------------------2----u--|
  A|-2------------------m----2-------|-2-----------------------2-----m-|
  E|-0-----------------------0-------|-0-----------------------0-------|

I take

Chorus:
x02200 E D
one step away
  and I f[Fm]ind myself c[E]oming back
x02200 E D
to you my one and only

     [Fm]1 * * * 2 * [E]* * 3 * * * 4 * * *
  e|-2-s---------0-----0--s----------|
  B|-2---t-------0-----0----t--------|
  G|-2-----r-----1h2---1------r------|
  D|-4-------u---2-----2--------u----|
  A|-4---------m-2-----2----------m--|
  E|-2-----------0-----0-------------|

one and only you

ADLIB

x02200 E Fm
ooh...

     [7]xx0230
1 * * * 2 * * * 3 * * * 4 * * *
  e|-0-----2--s--2h3-----------------|
  B|-3-----3--t--3-------------------|
  G|-2-----2--r--2-------------------|
  D|-0-----0--u--0-------------------|
  A|----------m----------------------|
  E|---------------------------------|


VERSE III (same as VERSE II)
now I know
that I know not a thing at all
except the fact that I am yours
and that you are mine

REFRAIN
  [Fm]oh, and they tol[E]d me that this wouldn't be ea[D]sy

8
     [D]1 * * * 2 * * * 3 * * * 4 * * *
  e|-2-3-x-3-x---m-m-3-2-s-----------|
  B|-3-3-x-3-x---m-m-3-3---t---------|
  G|-2-2-x-2-x---m-m-2-2-----r-------|
  D|-0-0-x-0-x---m-m-0-0-------u-----|
  A|-----------------------------m---|
  E|---------------------------------|


  and Oh[Fm], I'm not[E] one to complain

8 9
     [D]1 * * * 2 * * * 3 * * * 4 * * *   [D]1 * * * 2 * * * 3 * * * 4 * * *
  e|-2--s--------------------0h2-s---|-2-------------------------------|
  B|-3------t----------------3---t---|-3-------------------------------|
  G|-2----------r------------2---r---|-2-------------------------------|
  D|-0--------------u--------0---u---|-0-------------------------------|
  A|--------------------m--------m---|---------------------------------|
  E|---------------------------------|---------------------------------|



(repeat CHORUS)

x02200 E Fm
one step away
  and I f[D]ind myself c[E]oming back
x02200 E D
to you my one and only
(6) x02200
one and only you

===============================================================================

Important: The song above is NOT stored on the Chordie server. The original song is hosted at www.guitaretab.com. Chordie works as a search engine and provides on-the-fly formatting. Chordie does not index songs against artists/composers will. To remove this song please click here.

Text color:
Chord color:
Chord grids: 
Font size:    
Page size: 

D E F#m Fm
variations - click chord images

Login - add to songbook

Transpose chords

Tuning

Rating click stars to rate

Layout
Accuracy

SHARE PAGE  




You need to log in to post comments