Alumni Homecoming

Parokya Ni Edgar

 AEF#mD
   Napatunganga nung bigla kitang nakita
 AEF#mD
  pagkalipas ng mahabang panahon     

 AEF#mD
   highschool pa tayo nung una kang nakilala
 AE
  at tandang tanda ko pa
 F#mD
  noon pa may sobrang lupit mo na
 AE
   Di ko lang alam kung pano
 F#mD
   basta biglang nagsama tayo
 AEF#mD
   di nagtagal ay napa-ibig mo ako
 AEF#mD
   Mula umaga, hanggang uwian nati'y
 AEF#mD
  laging magkasama tayong dalawa      
 AEF#mD
   parang kahapon lang nangyari sa kin ang lahat
 AEF#mD
  tila isang dulang medyo romantiko ang banat
 AE
   Ngunit napag-usapan
 F#mD
   bigla na lang nagkahiyaan
 AEF#mD
   mula noon hindi na tayo nagpansinan

CHORUS: do chord pattern
 AE
  At bakit ko ba pinabayaan
 F#mD
   mawala ng hindi inaasahan
 AE
   parang nasayang lang
F#m(break) D A-E-F#m-D (2x)
nawala na, wala nang nagawa

 AEF#mD
   panay ang plano, ngunit panay ang urong
 AEF#mD
  at inabot na ng dulo ng taon      
 AEF#mD
   graduation natin nung biglang nag-absent partner ko
A(break) E(break)
tadhana nga naman
 F#mD
  naging magpartner tayo
 AE
   Eksakto na ang timing
 F#mD
   Planado na ang sasabihin
 AEF#mD
   Ngunit hanggang huli, wala akong nasabi

CHORUS: do chord pattern
 AE
  At bakit ko ba pinabayaan
 F#mD
   mawala ng hindi inaasahan
 AE
   parang nasayang lang
 F#mD
  nawala na, wala nang nagawa

ADLIB: 2min:44sec)

e|----------------14-12----14~--17-16-14-------------15/17-17~--16----------------------|
B|----------------------12---------------17-15-14-15---------------17-------------------|
G|-------9------------------------------------------------------------16\14-14-13-14~---|
D|--9-11---11-9-------------------------------------------------------------------------|
A|--------------------------------------------------------------------------------------|
E|--------------------------------------------------------------------------------------|

This can be picking.....
e|-----------------------------------12h13h14-14\--14-14-14-16-17-17-16-17-19--|
B|----------7h9h10-10h11h12-12h13h14-------------------------------------------|
G|--9h10h11--------------------------------------------------------------------|
D|-----------------------------------------------------------------------------|
A|-----------------------------------------------------------------------------|
E|-----------------------------------------------------------------------------|
e|------12-----17-------------------------------------17-------------------17---|
B|--12b----12b----17b-17b-15~-15p14h15h17-15p14h15h17---------------------------|
G|-------------------------------------------------------------------13h14------|
D|-------------------------------------------------------14-12-14/16------------|
A|------------------------------------------------------------------------------|
E|------------------------------------------------------------------------------|
e|-----------------------------------|
B|--10p9-----------------------------|
G|-------11-9\7-6--6-6-7--10-10-14---|
D|-----------------x-x-x--x--x--x----|
A|-----------------4-4-5--8--8--12---|
E|-----------------------------------|


3min:20sec
e|--------------------------|
B|--9/10-9\7-7---------5~---|
G|-------------9-7-6-7------|
D|--------------------------|
A|--------------------------|
E|--------------------------|


 AEF#mD
   Napatunganga nung bigla kitang nakita
 AEF#mD
  pagkalipas ng mahabang panahon     
 AEF#mD
   Sobrang alam ko na ang aking sasabihin
 AEF#mD
  at ako'y napailing sa ganda ng ngiti mo sa kin
 AE
   at nang ikaw ay nilapitan
 F#mDAE
   bigla na lang napaligiran ng yong mga anak
 F#mD
  mula sa pangit mong asawa

3min:46sec
e|-------------------------------------|
B|-------------------------------------|
G|--7-7-7-9-9-9-11-11-11-13-13-13-14---|
D|--x-x-x-x-x-x-x--x--x--x--x--x--x----|
A|--5-5-5-7-7-7-9--9--9--11-11-11-12---|
E|-------------------------------------|


CHORUS: do chord pattern
 AE
  At bakit ko ba pinabayaan
 F#mD
   mawala ng hindi inaasahan
 AE
  parang nasayang lang
 F#mD
  nawala na,  wala nang nagawa

 AE
  At bakit ko ba pinabayaan
 F#mD
   mawala ng hindi inaasahan
 AE
   parang nasayang lang
F#m(break) D
nawala na, wala nang nagawa

A-E-F#m-D (4x)
Wala nang nagawa (4x)

4min:34sec
e|-------------------------------------|
B|-------------------------------------|
G|--9/11-11-11\9-9-9/7-7-6-7-9-7-------|
D|-------------------------------7~/---|
A|-------------------------------------|
E|-------------------------------------|				



A D E F#m
variations - click chord images
Transpose chords:
Tuning:
Cool service:
View: Size:
A  A  A
Rating:
Layout:
  • Currently 3/5 Stars.
  • 1
  • 2
  • 3
  • 4
  • 5
 
Accuracy:
  • Currently 2.8/5 Stars.
  • 1
  • 2
  • 3
  • 4
  • 5
 
click stars to rate
Chordie recommends:
Learn to play this song & others via video guitar lessons at JamPlay.com
Songbook:
Login to add this song to your songbook
Support the artist
Preview/buy this song
MSN Music
Why this non-profit ad?

 
login to add comments/video/corrections