Guitar Tabs, Chords and Lyrics


Lutong Bahay   Parokya Ni Edgar



Song:Lutong Bahay(Cooking ng Ina Mo)
Album:Buruguduystunstugudunstuy
Artist:Parokya Ni Edgar
Date Tabbed:September,2007
Guitar Tabber:Ryan Manongdo/17/m/Montalban Rizal
              no_falter0x@yahoo.com(Friendster&YM)
              
For your questions or suggestions,just post in friendster comment,PM or mail me.

Gtr.Legends:
/ - slide
p - pull-off
h - hammer-on
x - dead string
~ - let it ring

Gtr.Tuning:Standard(Normal)

Intro prt.1:Bass Converted to guitar...
e|------------------------------------------------------------------------------|
B|------------------------------------------------------------------------------|
G|------------------------------------------------------------------------------|
D|--------------------6-------7h9-7--6h7-6----------------------6~--------------|
A|-7---------9----------4--------------------7---------9------------4h5-7-9-7---|
E|---7---5-7---7----7-------7------------------7---5-7---7----7-----------------|

Intro prt.2:
Gtr.1
e|-00000-22222-44444-22222---00000-22222-4~---|
B|-00000-22222-44444-22222---00000-22222-4~---|
G|-11111-22222-44444-22222---11111-22222-4~---|
D|-22222-44444-66666-44444---22222-44444-6~---|
A|-22222-44444-66666-44444---22222-44444-6~---|
E|-00000-22222-44444-22222---00000-22222-4~---|

Gtr.2
e|-13----12----13----12----13----12----13~---|
B|-14-14-14-14-14-14-14-14-14-14-14-14-14~---|
G|-------------------------------------------|
D|-------------------------------------------|
A|-------------------------------------------|
E|-------------------------------------------|

Verse 1:Ok talaga...
Play Intro prt.2(Gtr.1 Only)

Pre-Chorus:Di ako aatras...
e|-44444-22222---44444-2~---|
B|-55555-33333---33333-3~---|
G|-66666-44444---66666-4~---|
D|-66666-44444---66666-4~---|
A|-44444-22222---44444-2~---|
E|--------------------------|

Chorus:Ng cooking ng ina mo...
Gtr.1:Play Intro prt.2

Gtr.2
e|----------------------------------------------------|
B|-5~---5-7--5-7-7/9-7-5-7-5~---5~---5-7--5-7-7/9b~---|
G|----6----------------------------6------------------|
D|----------------------------------------------------|
A|----------------------------------------------------|
E|----------------------------------------------------|

Verse 2:Laging mahusay...
Play Verse 1

Repeat Pre-Chorus:

Repeat Chorus:
Gtr.1:Play Intro prt.1

Gtr.2:
e|--------------------------------------------------------------|
B|-5~---5-7--5-7-7/9-7-5-7-5~---5~---5-7--5-7-9p7-9p7-9p7-9p7---|
G|----6----------------------------6----------------------------|
D|--------------------------------------------------------------|
A|--------------------------------------------------------------|
E|--------------------------------------------------------------|

Bridge:Lagi akong...
e|-55555-44444--      -22222---|
B|-55555-44444--      -22222---|
G|-66666-44444-- 3x   -22222---|
D|-77777-66666-- Then -44444---|
A|-77777-66666--      -44444---|
E|-55555-44444--      -22222---|

Gtr.2
e|-----------------------------|
B|-----------------------------|
G|-99-xxx-99--xxx-99-xxxx-99---|
D|-xx-xxx-xx--xxx-xx-xxxx-xx---|
A|-77-xxx-77--xxx-77-xxxx-77---|
E|-----------------------------|

Repeat Chorus:

Last Chord:
Gtr.1      Gtr.2
e|-0~----  -------------------|
B|-0~----  -9b-9h7-7-5---5~---|
G|-1~----  ------------6------|
D|-2~----  -------------------|
A|-2~----  -------------------|
E|-0~----  -------------------|

End...

Lutong Bahay Lyrics(Cooking ng Ina Mo):
 
Verse 1
Okey talaga ang luto ng iyong ina
Ako'y ganado sa cooking ng ina mo!
Maging ang pan cake sa umaga 
O kape sa gabi.

Pre-Chorus:
Kakaibang mga sangkap
kaya ubod ng sarap

Chorus 1:
Ng cooking ng ina mo 
cooking ng ina mo ooh oh oh

Verse 2:
laging mahusay ang ulam nyo sa bahay
na luto ng iyong inay(i love you mommy)
kinilaw na kanin sa tanghali
meryenda nyoy sinigang na ube

Pre-Chorus 2:
Kakaibang mga sangkap
Kaya ubod ng sarap

Chorus 2:
Putahe ng ina mo
Putahe ng ina mo ooh oh oh

BRIDGE:
Lagi akong dadayo
Upang makikain sa inyo
Ako'y lalayas sa amin
Basta't makatikim 

Repeat Chorus 1:          


Important: The song above is NOT stored on the Chordie server. The original song is hosted at www.guitaretab.com. Chordie works as a search engine and provides on-the-fly formatting. Chordie does not index songs against artists/composers will. To remove this song please click here.

This song is displayed as text-only. Transposing and tuning is only available for chordpro-songs.

Login - add to songbook

Rating click stars to rate

Layout
Accuracy

SHARE PAGE  




You need to log in to post comments