"yes"; ?> Dont Touch My Birdie by Parokya Ni Edgar - guitar chords, guitar tabs and lyrics - chordie

Dont Touch My Birdie

Parokya Ni Edgar

 AA
e |---------|             e |------0-|
B |---2-3-5-|             B |---2-3--|
G |---------|    or       G |--------|
D |--2------|             D |--2-----|
A |-0-------|             A |-0------|
E |---------|             E |--------|

 EF#mEDAE
e |---------|--------------|---4--4--4-|--2--2--2-|----------|--------------|-0-|
B |---------|-----2h3p2----|----0--0---|---3--3---|--2--2--2-|-----2h3p2----|-0-|
G |---1-2-4-|----2-----2---|-----1--1--|----2--2--|---2--2---|----2-----2---|-1-|
D |--2------|---4-------4--|-----------|-0--------|----2--2--|---4-------4--|-2-|
A |---------|--4---------4-|-----------|----------|-0--------|--4---------4-|-2-|
E |-0-------|-2------------|-0---------|----------|----------|-2------------|-0-|


Verse 1:

 AE
 Kapag ako'y nababato
 F#mE
 Pinaglalaruan ko ang birdie ko
 F#mE
 Ang cute cute naman kasi
 DE
 Kaya ko siya binili

Verse 2:

 AE
 My birdie is my bestfriend
 F#mE
 Ang dami naming maliligayang sandali
 F#mE
 Madalas ko siyang pinapakain ng birdseed
 DE
 Mahal kita o birdie ko, 'wag kang lalayo

Chorus:

 AE
 Don't touch my birdie
 F#mE
 Resist temptation please
 F#mE
 You don't have to grab my birdie
 DE
 Just call it, and it will come

Solo: (Distortion)

|---------------------------|---------19b--17-16-17-16-----------------|
|-------14---15----17---17b-|--17--15-----------------17-17b-14-12-10--|
|--13/14--14----14---14-----|------------------------------------------|
|---------------------------|------------------------------------------|
|---------------------------|------------------------------------------|
|---------------------------|------------------------------------------|
|-------------------9-10-12p10---------------|--------------------------5-7-9-10-12--|
|-9/10/9-10-12p10p9------------12-10-9-------|--------------------7-5-7--------------|
|--------------------------------------11-9--|------------7-6-7-9--------------------|
|--------------------------------------------|--6/7/6-7-9----------------------------|
|--------------------------------------------|---------------------------------------|
|--------------------------------------------|---------------------------------------|


(thnx for the Solo Jooossshhh)

Verse 3:
 AE
 Ang birdie ko ay nakakatuwa
 F#mE
 Parang cobra na mahilig manuka
 F#mE
 Kapag nilabas na mula sa kulungan
 DE
 Tuloy-ttuloy na ang aming kasiyahan

Di naman ako madamot talaga
Ayaw ko lang na hinahawakan s'ya ng iba
Ang birdie ko ay medyo masungit
Konting hawak lang siguradong magagalit

CHORUS

INTERLUDE

It will come

Bridge:

 F#mE
 Huwag ka sanang magalit sa akin
 DA
 Tuwing ang birdie ko ay aking hihimasin
 F#mE
 Sana'y maunawaan mo
 D
 Mahal na mahal ko ang birdie ko
 A
 Pati mga itlog nito

CHORUS(2x)

CODA

It will come
It will come

A D E F#m
variations - click chord images
Transpose chords:
Tuning:
Cool service:
View: Size:
A  A  A
Rating:
Layout:
  • Currently 2.1/5 Stars.
  • 1
  • 2
  • 3
  • 4
  • 5
 
Accuracy:
  • Currently 3.1/5 Stars.
  • 1
  • 2
  • 3
  • 4
  • 5
 
click stars to rate
Chordie recommends:
Learn to play this song & others via video guitar lessons at JamPlay.com
Songbook:
Login to add this song to your songbook
Support the artist
Preview/buy this song
MSN Music
Why this non-profit ad?

 
login to add comments/video/corrections