Hickory Wind

Gram Parsons

 GDCGmajsusDsus4
            Eb|------3-----2-----0-------3-------3-----
            Bb|------0-----3-----1-------1-------3-----
            Gb|------0-----2-----0-------0-------2-----
            Db|------0-----0-----2-------0-------0-----
            Ab|------2-----0-----3-------2-------0-----
            Eb|------3-----0-----3-------3-------0-----


Verse 1:
-------

 GDCG-Gmajsus-G
   In South Carolina     there's many tall pines         

 GDCD
  I remember the oak tree    that we used to climb

 CDG-Gmajsus-G
  But now when I'm lonesome   I'd always preten           

 CDG-Gmajsus-G
  That I'm getting the feeling   of Hickory wind          

Verse 2:
-------

 GDCG-Gmajsus-G
  I'd started out younger   had most everything          

 GDCD
  All the riches and pleasures   what else can life bring

 CDG-Gmajsus-G
  But it makes me feel better   each time it begins         

 CDG-Gmajsus-G
  Calling me home  Hickory Wind           

Break: D - C - G (backing guitar starts here)

Verse 3:
-------

 GDCG-Gmajsus-G
  It's a hard way to find out   trouble is real           

 GDCD
  In a far away city   with a far away feel

 CDG-Gmajsus-G
  But it makes me feel better   each time it begins         

 CDG-Gmajsus-G
  Calling me home   Hickory Wind           

 CDG-Gmajsus-G
  Keeps calling me  home   Hickory Wind           

Ending Jingle:
-------------    

Sl = slide
Hm = Hammer on
Ho = Hammer off
^^ = Bend (Quick strum & mute on the last G chord)

 GGG
 E|-----3-------------------------------------------------------------3---3--
 B|-----3-------------------------------------------------------------3---3--
 G|-----0--2--Sl--4---2-Ho-0----3-^^-3-Ho-0-----------0---------------0---0--
 D|-----0--------------------------------------0-Hm-2------------0----0---0--
 A|-----2-------------------------------------------------0-Hm-2------2---2--
 E|-----3-------------------------------------------------------------3---3--


C D Dsus4 G
variations - click chord images
Transpose chords:
Tuning:
Cool service:
View: Size:
A  A  A
Rating:
Layout:
  • Currently 2.8/5 Stars.
  • 1
  • 2
  • 3
  • 4
  • 5
 
Accuracy:
  • Currently 3/5 Stars.
  • 1
  • 2
  • 3
  • 4
  • 5
 
click stars to rate
Chordie recommends:
Check out these online guitar lessons
Songbook:
Login to add this song to your songbook
Support the artist
Preview/buy this song
MSN Music
Why this non-profit ad?

 
login to add comments/video/corrections