Guitar Tabs, Chords and Lyrics


God Of Wonders   Paul Baloche



               
E||-----------------------------|-------------------------|
B||9h10-10-10--9----------------|-------------------------|
G||---------------9----9h11--9--|9h11-11-11--9------------|
D||-----------------------------|---------------9----9--11|
A||-----------------------------|-------------------------|
E||-----------------------------|-------------------------|


           
|---------------------------|--------------------------
|---------------------------|--------------------------|
|---------------------------|--------------------------|
|11h12-12-12--11------------|--------------------------|
|-----------------12--------|14p12---------------16----|


Important: The song above is NOT stored on the Chordie server. The original song is hosted at www.guitaretab.com. Chordie works as a search engine and provides on-the-fly formatting. Chordie does not index songs against artists'/composers' will. To remove this song please click here.

This song is displayed as text-only. Transposing and tuning is only available for chordpro-songs.

Login - add to songbook

Rating click stars to rate

Layout
Accuracy

SHARE PAGE  




You need to log in to post comments