Guitar Tabs, Chords and Lyrics


Admiral Halsey  Paul McCartney

We're so [Am7]sorry  Uncle A[D]lbert
We're so [Am7]sorry if we caused you any pai[D]n
We're so sor[Am7]ry  Uncle A[D]lbert
But there's [Gm7]no one left at h[C]ome and [C#]I beli[D]eve I'm rain


(Break:) Gm7 C Gm7 C Gm7 C Gm7 C C#7 D Am7 D

We're so s[Am7]orry but we haven’t heard a t[D]hing all day
We're so s[Am7]orry Uncle A[D]lbert
But if [Gm7]anything should [C]happen [C#]I’ll be s[D]ure to give a ring

(Break:) Gm7 C Gm7 C Gm7 C Gm7 C C#7 D C D


roll tonuge (spoken)

We're so [Am7]sorry  Uncle A[D]lbert
But we [Am7]haven't done a bloody thing all [D]day
We're so [Am7]sorry  Uncle A[D]lbert
But the [Gm7]kettle's on the [C]boil and [C#]we’re so [D]easily called away

(Break:) Gm7 C Gm7 C Gm7 C Gm7 C C#7 D C Bb Gm


Trumpet Solo:

[Am]    [C]   [Am]    [C]  [Am]    [C]   [Em]                 
e -8-5-8-5--------------8-5-8-5--------------8-5-8-5---------------7-6-7---|
B ---------5--8-5-8-5-----------5--8-5-8-5-----------5--8-5-8-5--8---------|
G -------------------------------------------------------------------------|
D -------------------------------------------------------------------------|
A -------------------------------------------------------------------------|
E -------------------------------------------------------------------------|


Refrain:
[C]Hands ac[Am]ross the [Dm]water
[Gm7]Heads across the [F]sky[Ab]   [Bb]   [C]
[C]Hands ac[Am]ross the [Dm]water
[G7]Heads across sky [C]

Riff 1:
e ---0---1---2---3---1---0---|
B ---------------------------|
G ---0---2---2---3---2---0---|
D ---------------------------|
A ---------------------------|
E ---------------------------|


[Am]Admiral Halsey [C]notified me
He [Am]had to have a berth or he [C]couldn’t get to sea
I [Am]had another look and I [C]had a cup of tea and [Em]a butter pie

(The butter wouldn't melt so I put it in the pie)

Refrain:
[C]Hands ac[Am]ross the [Dm]water
[Gm7]Heads across the [F]sky[Ab]   [Bb]   [C]
[C]Hands ac[Am]ross the [Dm]water
[G7]Heads across sky [C]

[C]Live a little be a gypsy, get around (get around)
Get your feet up off the [G7]ground
Live a little, get a[C]round
[C]Live a little be a gypsy, get around (get around)
Get your feet up off the [G7]ground
Live a little, get a[C]round

Riff 1:
e ---0---1---2---3---1---0---|
B ---------------------------|
G ---0---2---2---3---2---0---|
D ---------------------------|
A ---------------------------|
E ---------------------------|


Trumpet Solo:

[Am]    [C]   [Am]    [C]  [Am]    [C]   [Em]                 
e -8-5-8-5--------------8-5-8-5--------------8-5-8-5---------------7-6-7---|
B ---------5--8-5-8-5-----------5--8-5-8-5-----------5--8-5-8-5--8---------|
G -------------------------------------------------------------------------|
D -------------------------------------------------------------------------|
A -------------------------------------------------------------------------|
E -------------------------------------------------------------------------|


Refrain:
[C]Hands ac[Am]ross the [Dm]water
[Gm7]Heads across the [F]sky[Ab]   [Bb]   [C]
[C]Hands ac[Am]ross the [Dm]water
[G7]Heads across sky [C]

[C]                 [G7]          [C]                                                       
Ooo------------Ooo-------------				


Important: The song above is NOT stored on the Chordie server. The original song is hosted at www.guitaretab.com. Chordie works as a search engine and provides on-the-fly formatting. Chordie does not index songs against artists'/composers' will. To remove this song please click here.

Text color:
Chord color:
Chord grids: 
Font size:    
Page size: 

Ab Am Am7 Bb C C# D Dm Em F G7 Gm7
variations - click chord images

Login - add to songbook

Transpose chords

Tuning

Rating click stars to rate

Layout
Accuracy

SHARE PAGE  




You need to log in to post comments