Chordie logo

Sometimes  Paul Revere and The Raiders

[Ab]Sometimes I cry when I'm [C#]lonely   [Eb]

[Ab]Sometimes I cry when I'm [C#]blue     [Eb]

[Ab]Right now I'm cryin' 'cause I [C#]love you  [Eb]

[Ab]I'm cryin' 'cause you d[C#]on't l[Eb]ove me [Ab]too  [Ab7]

[C#]Come on & t[Eb]ell me that you love[Ab] me  [Ab7]

[C#]Won't you please a[Eb]nswer yes or [Ab]no  [Ab7]

[C#]Tell me if [Eb]I'm your one & o[Ab]nly  [F]

So [Bb]I can either stay or go, w[Eb]o oh

[Ab]Tell me, my darlin', if you [C#]love me [Eb]

Now [Ab]tell me if you feel the [C#]same   [Eb]

[Ab]Tell me, my darlin', if you l[C#]ove me  [Eb]

Or if [Ab]all the tears I [C#]shed were [Eb]shed in v[Ab]ain


Oh tell me now


guitar solo: Ab minor pentatonic (up one octave, of course)

hold bend keep holding 19b21 until br
-----------------------21----------------------------|
--16-19b21h21h21h21h21----21h21h21h21h21h21br19------|
------------------------------------------------18---|
-----------------------------------------------------|
-----------------------------------------------------|
-----------------------------------------------------|


small bend
-------------19-16----16-----------------------------|
----------16-------19------19-19-19-19-16------------|
----16-18---------------------------------18b--------|
-18--------------------------------------------------|
-----------------------------------------------------|
-----------------------------------------------------|


alternate/strum between the 18b20 bend and holding down the two 16s with your index finger
^
----------16---------------------------------------|
----------16---------------------------------------|
----16-18-18b20--x5?----18-16-------------------16-|
-16---------------------------18-------------16----|
---------------------------------------18-18-------|
---------------------------------------------------|
----------------------------------------------------|
-19-16----19-16----19-16----17-17-17-19-17-16-------|
-------16-------16-------16----------------18b20-x?-|
----------------------------------------------------|
----------------------------------------------------|
----------------------------------------------------|


(repeat verse 1)

(repeat & fade):

[Ab]I'm cryin' 'cause you d[C#]on't l[Eb]ove me [Ab]too

Important: The song above is NOT stored on the Chordie server. The original song is hosted at www.guitaretab.com. Chordie works as a search engine and provides on-the-fly formatting. Chordie does not index songs against artists/composers will. To remove this song please click here.

Ab Ab7 Bb C# Eb F
variations - click chord images

Login - add to songbook

Transpose chords

Tuning

Rating click stars to rate

Layout
Accuracy

SHARE PAGE  



You need to log in to post comments