Guitar Tabs, Chords and Lyrics


El Condor Pasa  Paul Simon

e -12-10--------------------------------------|


B -------12-10-8-10-12------------------------|


G --------------------------------------------|

D --------------------------------------------|
A --------------------------------------------|
E --------------------------------------------|
e -12-10-12-10--------------------------------|
B -------------12-10-8-10-12------------------|
G --------------------------------------------|
D --------------------------------------------|
A --------------------------------------------|
E --------------------------------------------|
e -12-15-------12-----------------------------|
B --------------------------------------------|
G --------------------------------------------|
D --------------------------------------------|
A --------------------------------------------|
E --------------------------------------------|
I'd r[Em]ather be a sparrow than a s[G]nail
Yes I would, if I could, I surely w[Em]ould
[Bmm]I'd rather be a hammer than a n[G]ail
Yes I would, if I only could, I surely w[Em]ould
Aw[C]ay, I'd rather sail away
Like a sw[G]an that's here and gone
A m[C]an gets tied up to the ground
He gives the w[G]orld its saddest sound
Its saddest s[Em]ound
I'd rather be a forest than a st[G]reet
Yes I would, if I could, I surely w[Em]ould
I'd rather feel the earth beneath my f[G]eet
Yes I would, if I only could, I surely w[Em]ould[C]   [G]   [C]   [G]   [Em]

Important: The song above is NOT stored on the Chordie server. The original song is hosted at www.guitaretab.com. Chordie works as a search engine and provides on-the-fly formatting. Chordie does not index songs against artists/composers will. To remove this song please click here.

Text color:
Chord color:
Chord grids: 
Font size:    
Page size: 

C Em G
variations - click chord images

Login - add to songbook

Transpose chords

Tuning

Rating click stars to rate

Layout
Accuracy

SHARE PAGE  




You need to log in to post comments