Chordie logo

high   Paulson



Paulson
Ultra-High
All At Once

I played a show with this band in Kansas City, and they're awesome. This is the best 
on the album by far.

Intro/Chorus
Delay Pedal Throughout

e------------------------------|
B------------------------------|
G------------------------------|
D--9--9-9--9-9--9-9--9-9--9-9--|
A------------------------------|
E------------------------------|

e-----------------------------------------------------|
B--7--7----------------------------7---7-8---8--8--8--|
G-------8--8-9---9-9--9-9-----------------------------|
D--9--9-9--9-9---9-9--9-9---9---9--9---9-9---9--9--9--|
A---------------------------10--10-10-----------------|
E-----------------------------------------------------|

Verse
No Delay

e--0--0--0--0--0--0--0--0--0--0--0--0--0--0--0--0--|
B--0--0--0--0--0--0--0--0--0--0--0--0--0--0--0--0--|
G--7--7--7--7--6--6--6--6--2--2--2--6--4--4--4--4--|
D--9--9--9--9--7--7--7--7--4--4--4--7--5--5--5--5--|
A--------------------------------------------------|
E--------------------------------------------------|

Chorus

Verse

Bridge

e---------------------------------------------------------------|
B---------------------------------------------------------------|
G--9---9-9-9h11------9-9-9-9h11-9---9-9-9h11-----9-9-9-9h11-----|
D---------------------------------------------------------------|
A--------------12---------------------------12-------------12---|
E---------------------------------------------------------------|

Chorus



Important: The song above is NOT stored on the Chordie server. The original song is hosted at www.guitaretab.com. Chordie works as a search engine and provides on-the-fly formatting. Chordie does not index songs against artists/composers will. To remove this song please click here.

This song is displayed as text-only. Transposing and tuning is only available for chordpro-songs.

Login - add to songbook

Rating click stars to rate

Layout
Accuracy

Jango Player

SHARE PAGE  

You need to log in to post comments