Guitar Tabs, Chords and Lyrics
Major upgrade!! After one year development the new version of Chordie is now online! Please give feedback.


Couldn't Know  Paw

[++++++++++++++++++++++++++++++++++++++++++++++++++++++++++++++++++++++]Couldnt know
By PAW
ALBUM: Dragline 1992
Transcribed by hefesto (hefesto80@hotmail.com)
[++++++++++++++++++++++++++++++++++++++++++++++++++++++++++++++++++++++]  
This was found on www.guitartabs.cc
INTRO
moderate dist.
..........palmute open strings
 
 e--------------------------|-------------------|---------------------|
 b--------------------------|-------------------|---------------------|
 g----7--7--7--7--7--7--7---|-7--7--7--7--7--7--|---------------------|
 d----7--7--7--7--7--7--7---|-7--7--7--7--7--7--|---5--5--5--5--5-----|
 a----5--5--5--5--5--5--5---|-4--4--4--4--4--4--|---5--5--5--5--5-----|
 E--------------------------|-------------------|---3--3--3--3--3-----|
 e--------------------------|------------------|
 b--------------------------|------------------|
 g--------------------------|------------------|
 d----4--4--4---------------|-----2--2--2------|
 a----2--2--2---------------|-----2--2--2------|
 E--------------------------|-----0--0--0------|

_*All the time is the same.
This part, when he say: "the most beautyful thing I ever see" its to easy
just change D5 to E5 and C5 to E5.
In the future I submit the final part.
*Chorus tabbed out by me. This is what the D5, E5, and C5 are.
[D5] [E5] [C5] [E5]  
 
 e---------------------------------------------|
 B---------------------------------------------|
 G---------------------------------------------|
 D--7-7-7-7-7---------5-5-5-5-5----------------|
 A--5-5-5-5-5-2-2-2-2-3-3-3-3-3-2-2-2-2--------|
 E------------0-0-0-0-----------0-0-0-0--------|

OR
VERSION #2 from http://members.aol.com/bdinger/
It does not seem right to me but here it is.
Couldn't Know
 
 e-----------------------------------------------------------|
 B-----------------------------------------------------------|
 G-----------------------------------------------------------|
 D-----7-7-7-7-7-7---7-7-------------------------4-4---------|
 A-----5-5-5-5-5-5-0-4-4-0-9-7-7-7---5-5-5-5-5-5-2-2-2-------|
 E-------------------------7-5-5-5-0-3-3-3-3-3-3-----0-------|
 e-----------------------------------------------------------|
 B-----------------------------------------------------------|
 G-----------------------------------------------------------|
 D-----7-7-7-7---7-7-7-7-----------4-4-----------------------|
 A-----5-5-5-5-0-4-4-4-4-0-5-5-5-5-2-2-2-2-------------------|
 E-------------------------3-3-3-3-----0-0-------------------|

Chorus
 
 e-------------------3----------------------3-------|
 B---------------------0----------------------3-----|
 G-----------------0---------------------0----------|
 D--7-7-7-7-7-------------5-5-5-5-5-----------------|
 A--5-5-5-5-5-0-2---------3-3-3-3-3-0-2-------------|
 E--------------0---------------------0-------------|


Important: The song above is NOT stored on the Chordie server. The original song is hosted at www.guitaretab.com. Chordie works as a search engine and provides on-the-fly formatting. Chordie does not index songs against artists'/composers' will. To remove this song please click here.

Text color:
Chord color:
Chord grids: 
Font size:    
Page size: 

C5 D5 E5
Rate #0 of 0 versions

Login - add to songbook

SHARE PAGE  




You need to log in to post comments