Better Man

Pearl Jam

-------------------------------------------------------------------------------

-------------------------------------------------------------------------------
e|---2-----2-----4-----0--|
B|---3-----3-----5-----0--|
G|---2-----2-----4-----1--|
D|---4-----0-----6-----2--|
A|---5-----x-----7-----2--|
E|---2-----x-----4-----0--|
e|---5-----1-----7-----3--|
B|---6-----1-----8-----3--|
G|---5-----2-----7-----0--|
D|---7-----3-----9-----0--|
A|---8-----3----10-----2--|
E|---5-----1-----7-----3--|

 DAG
 e|---2---0---3----|

B|---3---2---3----|
G|---2---2---0----|
D|---0---2---0----|
A|---x---0---2----|
E|---x---x---3----|

 D
 Waiting watching the clock
 E
 its 4 o'clock its got to stop
 D
 tell me take no more
 E
 she practices her speech

 FG
 as he opens the door she rolls over
 FG
 pretends to sleep as he looks her over

 DAG
 She lies and says she's in love with him
 DAG
 Can't find a better man
 DAG
 She dreams in color she dreams in red
 DAG
 Can't find a better man 
 DA
 Can't find a better man
 DA
 Can't find a better man

 DE
 Talking to her self there's no one else
 EDE
 who needs to know she tells her self 
 DE
 Memories, back when she was smooth
 EFG
 and strong and waited for the world to come along
 FG
 swears she knew it now she swears he's gone

 DAG
 She lies and says she's in love with him
 DAG
 Can't find a better man
 DAG
 She dreams in color she dreams in red
 AG
Can't find a better man
 DA
 Can't find a better man
 DA
 Can't find a better man

 DAG
 She loved him.........  yeah
 DAG
 She don't want to leave this way
 DAG
 She feeds him.........  yeah
 DAG
 That's why she'll be back again
 DAG
 Can't find a better man  (can't find a better man)

PD: the notes with * are that stone gossard plays originally.

Corrected by valerius. View original
A D E F G
variations - click chord images
Transpose chords:
Tuning:
Cool service:
View: Size:
A  A  A
Rating:
Layout:
  • Currently 3.5/5 Stars.
  • 1
  • 2
  • 3
  • 4
  • 5
 
Accuracy:
  • Currently 3.4/5 Stars.
  • 1
  • 2
  • 3
  • 4
  • 5
 
click stars to rate
Chordie recommends:
Learn how to play guitar at JamPlay.com
Songbook:
Login to add this song to your songbook
Support the artist
Preview/buy this song
MSN Music
Why this non-profit ad?

 
login to add comments/video/corrections