Guitar Tabs, Chords and Lyrics


Aye Divitata   Pearl Jam






===========
Aye Davanita
by Pearl Jam
from the Vitalogy cd
transcribed by kevin gardner
code@wam.umd.edu

main riff this is a mixture of the guitar
and bass lines.

------------------------------
------------------------------
--7----7-p-6--6---7---7---7-/-
-(0)--(0)----(0)-(0)-(0)-(0)--
--7----7------7---7---7---7-/-
--0----0------0---0---0---0---

an acoustic guitar plays these chords durring 
the entire song: E   E E E
===========
hey foxymophandlemama, thatUs me
by Pearl Jam
from the Vitalogy cd
transcribed by kevin gardner
code@wam.umd.edu

main riff this is a mixture of the guitar
and bass lines.

-------------------
-------------------
-------------------
-------------------  feed back controlled by 
-------------------   swelling on the volume knob


Important: The song above is NOT stored on the Chordie server. The original song is hosted at www.guitaretab.com. Chordie works as a search engine and provides on-the-fly formatting. Chordie does not index songs against artists'/composers' will. To remove this song please click here.

This song is displayed as text-only. Transposing and tuning is only available for chordpro-songs.

Login - add to songbook

Rating click stars to rate

Layout
Accuracy

SHARE PAGE  




You need to log in to post comments