Guitar Tabs, Chords and Lyrics


Keep On Rocking In The Free World  Pearl Jam

[E5]                [D5]     [C5]                                            
--------------------------------------------------------|
--------------------------------------------------------|
-9-9-9-9-9-9-/-7-7-/-5-5--------------------------------|
-9-9-9-9-9-9-/-7-7-/-5-5--------------------------------|
-7-7-7-7-7-7-/-5-5-/-3-3--------------------------------|
--------------------------------------------------------|


[E5]There's colors on the str[D5]eet [C5]
[E5]Red, white and bl[D5]ue  [C5]            (its the same on every line)
People shufflin' their feet
People sleepin' in their shoes
But there's a warnin' sign
on the road ahead
There's a lot of people sayin'
we'd be better off dead
Don't feel like Satan,
but I am to them
So I try to forget it,
any way I can.

-----------------------------------------|
-----------------------------------------|
------------7-7-7-7-7-/-5-5-5-5----------|
-5-5-5-5-5--7-7-7-7-7-/-5-5-5-5-2-2-2----|
-5-5-5-5-5--5-5-5-5-5-/-3-3-3-3-2-2-2----|
-3-3-3-3-3----------------------0-0-0----|


[G5]Keep on rockin' in[D5] the free wo[C5]rld, [E5]
Keep on rockin' in the free world
Keep on rockin' in the free world,
Keep on rockin' in the free world.
------------------------------------------|
------------------------------------------|
------------------------------------------|
--------7-7-7-7-7-7-----------------------| x3(after every chours)
--------7-7-7-7-7-7-----------------------|
--------5-5-5-5-5-5-----------------------|


I see a woman in the night
With a baby in her hand
Under an old street light
Near a garbage can
Now she puts the kid away,
and she's gone to get a hit
She hates her life,
and what she's done to it
There's one more kid
that will never go to school
Never get to fall in love,
never get to be cool.

Keep on rockin' in the free world,
Keep on rockin' in the free world
Keep on rockin' in the free world,
Keep on rockin' in the free world.

We got a thousand points of light
For the homeless man
We got a kinder, gentler,
Machine gun hand
We got department stores
and toilet paper
Got styrofoam boxes
for the ozone layer
Got a man of the people,
says keep hope alive
Got fuel to burn,
got roads to drive.

Keep on rockin' in the free world,
Keep on rockin' in the free world
Keep on rockin' in the free world,
Keep on rockin' in the free world.

by johnny-z (theblackbitch@hotmail.com)

Important: The song above is NOT stored on the Chordie server. The original song is hosted at www.guitaretab.com. Chordie works as a search engine and provides on-the-fly formatting. Chordie does not index songs against artists'/composers' will. To remove this song please click here.

Text color:
Chord color:
Chord grids: 
Font size:    
Page size: 

C5 D5 E5 G5
variations - click chord images

Login - add to songbook

Transpose chords

Tuning

Rating click stars to rate

Layout
Accuracy

SHARE PAGE  




You need to log in to post comments