Guitar Tabs, Chords and Lyrics


I Am Always The One Who Calls  Pedro The Lion

e|-----------------------------------------------------------------|


B|-----------------------------------------------------------------|


G|-----------------------------------------------------------------|

D|5-5-5-3-3-3-3-3-5-5-5-3-3-3-3-3-5-5-5-3-3-3-3-3-5-5-5-3-3-3-3-3--|
A|1-1-1-1-1-1-1-1-1-1-1-1-1-1-1-1-3-3-3-3-3-3-3-3-3-3-3-3-3-3-3-3--|
E|--------------------------------1-1-1-1-1-1-1-1-1-1-1-1-1-1-1-1--|
e|-----------------------------------------------------------------|
B|-----------------------------------------------------------------|
G|-----------------------------------------------------------------|
D|5-5-5-3-3-3-3-3-5-5-5-3-3-3-3-3----------------------------------|
A|1-1-1-1-1-1-1-1-1-1-1-1-1-1-1-1----------------------------------|
E|-----------------------------------------------------------------|
[F5]satellites m[D5]ediate [F5]for us the d[D5]ay's events
[F5]through fiber [D5]optics i [F5]hope we can cha[D5]nge the same
[Bb]i wouldn't [F5]mind, but you [C5]are my only h[A]ope
[Bb]i wouldn't [F5]mind, but you [C5]are my only hope
(Intro riff 1X)

[F]clear as a bell are the s[Bb]hort breaths
that you [Dm5]take when you're dis[C5]tracted
s[F]ame as the way that you r[Bb]oll your eyes
when i've a[Dm5]sked too many stu[C5]pid questions

[F5]my faith in z[D5]eros and o[F5]nes to host [D5]our romance
[F5]rests on ho[D5]pe you g[F5]ave that i've some [D5]claim to your heart
[Bb]i wouldn't [F5]mind, but you [C5]are my only h[A]ope
[Bb]i wouldn't [F5]mind, but you [C5]are my only hope
[F]clear as a bell are the s[Bb]hort breaths
that you [Dm5]take when you're dis[C5]tracted
s[F]ame as the way that you r[Bb]oll your eyes
when i've a[Dm5]sked to many qu[C5]estions
i will [C#]call you in t[G#]hree weeks m[C#]aybe then you'll h[Bb]ave some more to say
[F]  [Bb]   [Dm5]    [C]                                                             

Important: The song above is NOT stored on the Chordie server. The original song is hosted at www.guitaretab.com. Chordie works as a search engine and provides on-the-fly formatting. Chordie does not index songs against artists'/composers' will. To remove this song please click here.

Text color:
Chord color:
Chord grids: 
Font size:    
Page size: 

A Bb C C# C5 D5 F F5 G#
variations - click chord images

Login - add to songbook

Transpose chords

Tuning

Rating click stars to rate

Layout
Accuracy

SHARE PAGE  




You need to log in to post comments