Guitar Tabs, Chords and Lyrics
Major upgrade!! After one year development the new version of Chordie is now online! Please give feedback.


Barracuda   People in Planes

 
 ||----------------------------|
 ||o---------------------------|
 ||----------------------------|
 ||--7-7-5-----5-7-7-5---5---5-|
 ||o-------5-5---------7---7---|
 ||----------------------------|

 


 E S S E S S E S S S S S S


 


 

 
 |---------------------------|----------------------------|
 |---------------------------|----------------------------|
 |---------------------------|----------------------------|
 |-7-7-5-----5-7-7-5---5---5-|-7-7-5-----5-7-7-5---5---5--|
 |-------5-5---------7---7---|-------5-5---------7---7----|
 |---------------------------|----------------------------|

 


 E S S E S S E S S S S S S E S S E S S E S S S S S S


 


 

 
 |---------------------------||--------------------------------|
 |---------------------------||o-------------------------------|
 |---------------------------||--------------------------------|
 |-7-7-5-----5-7-7-5---5---5-||--7-7-7-7-7-7-10-10-10-10-10-10-|
 |-------5-5---------7---7---||o-------------------------------|
 |---------------------------||--------------------------------|

 


 E S S E S S E S S S S S S E E E E E E E E E E E E


 

 
 |-3-| |-3-| |--3--| |--3--|

 


 


 3x


 

 
 |--------------------------------------||---||
 |-------------------------------------o||--o||
 |--------------------------------------||---||
 |-12-12-12-12-12-12-14-14-14-14-14-14--||---||
 |-------------------------------------o||--o||
 |--------------------------------------||---||

 


 [E] [E] [E] [E] [E] [E] [E] [E] [E] [E] [E] [E]  

 
 |--3--| |--3--| |--3--| |--3--|


Important: The song above is NOT stored on the Chordie server. The original song is hosted at www.guitaretab.com. Chordie works as a search engine and provides on-the-fly formatting. Chordie does not index songs against artists'/composers' will. To remove this song please click here.

This song is displayed as text-only. Transposing and tuning is only available for chordpro-songs.
Rate #1 of 1 versions

Jango Player

Login - add to songbook

SHARE PAGE  




You need to log in to post comments