Chordie logo

Help Yourself   Person L



-----------------------------------------------
       Person L - Help Yourself (Intro)
-----------------------------------------------

e|-------------------------------------------|
B|-------------------------------------------|
G|-0------0----0----0-0-------0----0---------|
D|-----14---12-------------14---12-----------|
A|--13-----------13-----13-------------------|
E|-----------------------------------14\15---|

e|-------------------------------------------|
B|-------------------------------------------|
G|-0----0----0----0-0-------0----0-----------|
D|---14---12-------------14---12-------------|
A|-------------13-----13---------------------|
E|-----------------------------------14\15---|

e|-------------------------------------------------------------------|
B|-------------------------------------------------------------------|
G|-0----0----0----0-0-------0----0-----------------------------------|
D|---14---12-------------14---12---------1010-8-10-8-10--99-7-9-7777-|
A|-------------13-----13-----------------1010-8-10-8-10--99-7-9-7777-|


Important: The song above is NOT stored on the Chordie server. The original song is hosted at www.guitaretab.com. Chordie works as a search engine and provides on-the-fly formatting. Chordie does not index songs against artists/composers will. To remove this song please click here.

This song is displayed as text-only. Transposing and tuning is only available for chordpro-songs.

Login - add to songbook

Rating click stars to rate

Layout
Accuracy

SHARE PAGE  



You need to log in to post comments