Guitar Tabs, Chords and Lyrics


Multiple Beings   Pestilence



PESTILENCE - MULTIPLE BEINGS z kurwa SPHERES
				tab by slovak(riverp@wp.pl)

(standard tunning) 
(tłumione napierdalanie_this is gut(bez obaw grałem z oryginałem do zesrania))
------------------------------------------------| 
------------------------------------------------|
----------0--2--0-----------------0--2--0-------|
-------1-----------2--1--------1-----------2--1-| 3times
------------------------------------------------|
-0--2--------------------0--2-------------------|

------------------|---------------|
------------------|---------------|
------------------|-1p2p1---1p2---|
----------0--2----|-------4-------|
-------1--------2-|---------------|
------------------|---------------|
-0--2-------------|---------------|

------------------------------------------------| 
------------------------------------------------|
----------0--2--0-----------------0--2--0-------|
-------1-----------2--1--------1-----------2--1-| 3times
------------------------------------------------|
-0--2--------------------0--2-------------------|

------------------|---------------|
------------------|---------------|
------------------|---------------|
----------0--2----|----2--2--2----|
-------1--------2-|----1--1--1----|
------------------|---------------|
-0--2-------------|---------------|   ...i kurwa jazda! 




----------------------------------------------|
----------------------------------------------|
----------------------------------------------|
----------------------------------------------|
-2-----1------3-----4-----3-----5-------------|
----3------1-----2------5-----3-----4---1-0---|



----------------------------------------------|
----------------------------------------------|
----------------------------------------------|
(3)---(2)----(4)----(5)---(4)---(6)-----------|
-2-(4)-1--(2)-3-(3)--4-(6)-3-(4)-5-(5)-(2)(1)-|
----3------1-----2------5-----3-----4---1--0--|




----------------------------------------------|---------|
--5---------------------3---------------------|---------|
----5-----3---------------3-----1-------------|---------|
------6-----4----2----------4-----2----0------|---------|
--------------5----3----------------3----1----|--5-4-3--|
---------------------4---------------------2--|--3-2-1--|


-----------------------------------|
-----------------------------------|
-----------------------------------|
--11---11---11-----12----12----12--|
-----9----9-----------10----10-----|
-----------------------------------|


-----------------------------------|
-----------------------------------|
--6---6---6------7---7---7---------|
----4---4----------5---5-----------|
-----------------------------------|
-----------------------------------|


-----------------------------------|
--14----14----14---15----15----15--|
-----11----11---------12----12-----|
-----------------------------------|
-----------------------------------|
-----------------------------------|


---------------------------------
-----------------------------------
------------------------------------
-------------------------------3-------
--0-4-4-4---0-4-4-4---0-4-4-4--1-4-------------
--0-2-0-2---0-2-0-2---0-2-0-2----2-----------



---4-------0-----------------
---2-5-----2-3----------------
-----3-------1---------------













Important: The song above is NOT stored on the Chordie server. The original song is hosted at www.guitaretab.com. Chordie works as a search engine and provides on-the-fly formatting. Chordie does not index songs against artists/composers will. To remove this song please click here.

This song is displayed as text-only. Transposing and tuning is only available for chordpro-songs.

Login - add to songbook

Rating click stars to rate

Layout
Accuracy

SHARE PAGE  




You need to log in to post comments