Multiple Beings

Pestilence


PESTILENCE - MULTIPLE BEINGS z kurwa SPHERES tab by slovak(riverp@wp.pl)
(standard tunning) (tłumione napierdalanie_this is gut(bez obaw grałem z oryginałem do zesrania)) ------------------------------------------------| ------------------------------------------------| ----------0--2--0-----------------0--2--0-------| -------1-----------2--1--------1-----------2--1-| 3times ------------------------------------------------| -0--2--------------------0--2-------------------|
------------------|---------------| ------------------|---------------| ------------------|-1p2p1---1p2---| ----------0--2----|-------4-------| -------1--------2-|---------------| ------------------|---------------| -0--2-------------|---------------|
------------------------------------------------| ------------------------------------------------| ----------0--2--0-----------------0--2--0-------| -------1-----------2--1--------1-----------2--1-| 3times ------------------------------------------------| -0--2--------------------0--2-------------------|
------------------|---------------| ------------------|---------------| ------------------|---------------| ----------0--2----|----2--2--2----| -------1--------2-|----1--1--1----| ------------------|---------------| -0--2-------------|---------------| ...i kurwa jazda!
----------------------------------------------| ----------------------------------------------| ----------------------------------------------| ----------------------------------------------| -2-----1------3-----4-----3-----5-------------| ----3------1-----2------5-----3-----4---1-0---|
----------------------------------------------| ----------------------------------------------| ----------------------------------------------| (3)---(2)----(4)----(5)---(4)---(6)-----------| -2-(4)-1--(2)-3-(3)--4-(6)-3-(4)-5-(5)-(2)(1)-| ----3------1-----2------5-----3-----4---1--0--|
----------------------------------------------|---------| --5---------------------3---------------------|---------| ----5-----3---------------3-----1-------------|---------| ------6-----4----2----------4-----2----0------|---------| --------------5----3----------------3----1----|--5-4-3--| ---------------------4---------------------2--|--3-2-1--|
-----------------------------------| -----------------------------------| -----------------------------------| --11---11---11-----12----12----12--| -----9----9-----------10----10-----| -----------------------------------|
-----------------------------------| -----------------------------------| --6---6---6------7---7---7---------| ----4---4----------5---5-----------| -----------------------------------| -----------------------------------|
-----------------------------------| --14----14----14---15----15----15--| -----11----11---------12----12-----| -----------------------------------| -----------------------------------| -----------------------------------|
--------------------------------- ----------------------------------- ------------------------------------ -------------------------------3------- --0-4-4-4---0-4-4-4---0-4-4-4--1-4------------- --0-2-0-2---0-2-0-2---0-2-0-2----2-----------
---4-------0----------------- ---2-5-----2-3---------------- -----3-------1---------------




























variations - click chord images
Transpose chords:
Tuning:
Cool service:
View: Size:
A  A  A
Rating:
Layout:
  • Currently 0/5 Stars.
  • 1
  • 2
  • 3
  • 4
  • 5
 
Accuracy:
  • Currently 2.5/5 Stars.
  • 1
  • 2
  • 3
  • 4
  • 5
 
click stars to rate
Chordie recommends:
Get acoustic guitar lessons and electric guitar lessons at JamPlay.com
Songbook:
Login to add this song to your songbook
Support the artist
Preview/buy this song
MSN Music
Why this non-profit ad?

 
login to add comments/video/corrections