"yes"; ?> Lines by Murray Pete - guitar chords, guitar tabs and lyrics - chordie

Lines

Murray Pete

-----------------------------------------------------------------------------

-----------------------------------------------------------------------------
e|-----------------------------------------------|
B|-----------------------------------------------|
G|-----------------------------------------------| repeat alot
D|-----------------------------------------------|
A|---4-5-4----4------5---------------------------|
E|-2-------5-5---7-7-----------------------------|
e|-----------------------------------------------|
B|-----------------------------------------------|
G|-7-------9-------------------------------------|
D|-7-------9------4-------7----------------------|
A|-5-------7------4-------7----------------------|
E|----------------2-------5----------------------|
 D5E5F#5A5
Chorus: guitar 2 (clean)strumming
e|-2----(2)-------2-------0----------------------|
B|-3-----5--------2-------0----------------------|
G|-2-----4--------2-------2----------------------|
D|-4-----6--------4-------2----------------------|
A|-5-----7--------4-------0----------------------|
E|----------------2------------------------------|

 aDAnEF#minAsus2
capo on second fret may be neccessary for this guitar part, but i dont think most of
you nedd it. the d is just an open c chord shape up 2 frets, and the d is up another 2.

repeat verse, this time a clean guitar sometimes strums an F#minor (3rd chorus chord).
like in the "all your friends" bit it does on "friends"

chorus again
then Bridge: ("if you ever decide to call..."
Guitar 1 (overdrive) strumming
e|--------------------------------------------|
B|--------------------------------------------|
G|-9---7----9----7---9---7---9----7-----------|
D|-9---7----9----7---9---7---9----7-----------|
A|-7---5----7----5---7---5---7----5-----------|
E|--------------------------------------------|


Guitar 2 (clean strumming)
e|(4)--2---(4)---2--(4)--2---(4)--2---------|
B|-5---3----5----3---5---3----5---3---------|
G|-4---2----4----2---4---2----4---2---------|
D|-6---4----6----4---6---4----6---4---------|
A|-7---5----7----5---7---5----7---5---------|
E|------------------------------------------|


intro/verse riff with second play playing F#minor over it
until end.





A5 Asus2 D D5 E E5 F# F#5
variations - click chord images
Transpose chords:
Tuning:
Cool service:
View: Size:
A  A  A
Rating:
Layout:
  • Currently 3/5 Stars.
  • 1
  • 2
  • 3
  • 4
  • 5
 
Accuracy:
  • Currently 3.7/5 Stars.
  • 1
  • 2
  • 3
  • 4
  • 5
 
click stars to rate
Chordie recommends:
Learn to play this song & others via video guitar lessons at JamPlay.com
Songbook:
Login to add this song to your songbook
Support the artist
Preview/buy this song
MSN Music
Why this non-profit ad?

 
login to add comments/video/corrections