Guitar Tabs, Chords and Lyrics
Major upgrade!! After one year development the new version of Chordie is now online! Please give feedback.


Undercover   Pete Yorn

 
 e|--------5h7p5---------5h7p5---------5h7p5---------|
 B|--5--3--------7--7\3--------5--5\3--------7--8~~--|
 G|--------------------------------------------------|
 D|--------------------------------------------------|
 A|--------------------------------------------------|
 E|--------------------------------------------------|

 


 


 Solo: 1 2 3


 

 
 e|----------------------------|-----|-----|-----|
 B|----------------------------|-----|-----|-----|
 G|:--7-5-7--7-7-5-7-7^-5-7---:|-----|--5--|-----|
 D|:--------------------------:|--7--|-----|--5--|
 A|----------------------------|-----|-----|-----|
 E|----------------------------|-----|-----|-----|


Important: The song above is NOT stored on the Chordie server. The original song is hosted at www.guitaretab.com. Chordie works as a search engine and provides on-the-fly formatting. Chordie does not index songs against artists'/composers' will. To remove this song please click here.

This song is displayed as text-only. Transposing and tuning is only available for chordpro-songs.
Rate #1 of 3 versions

Jango Player

Login - add to songbook

SHARE PAGE  




You need to log in to post comments