Guitar Tabs, Chords and Lyrics


Damn You All To Hell   Peter Pan Speedrock



Song:Damn you all to hell

By:Peter Pan Speedrock

Tabbed by: RockMyBilly

E:---------||     
B:---------||
G: 3-2-0---||
D: 3-2-0-2~|| X4
A: 1-0-0-2~||
E: ------0~||

E: ------------------------------------------------------------||
B:-------------------------------------------------------------||
G:-------------------------------------------------------------||
D:-2-2-2-2---2-2-2-2-2---2-2-2-2-2-2-2-2-2---2-2-2-2-2-2-2-5-7-|| X4
A:-2-2-2-2---2-2-2-2-2---2-2-2-2-2-2-2-2-2---2-2-2-2-2-2-2-5-7-||
E:-0-0-0-0—--0-0-0-0-0—--0-0-0-0-0-0-0-0-0---0-0-0-0-0-0-0-3-5-||
                                 Palm Mute
E:---------||     
B:---------||
G: 3-2-0---||
D: 3-2-0-2~|| X4
A: 1-0-0-2~||
E: ------0~||

E: ------------------------------------------------------------||
B:-------------------------------------------------------------||
G:-------------------------------------------------------------||
D:-2-2-2-2---2-2-2-2-2---2-2-2-2-2-2-2-2-2---2-2-2-2-2-2-2-5-7-|| X4
A:-2-2-2-2---2-2-2-2-2---2-2-2-2-2-2-2-2-2---2-2-2-2-2-2-2-5-7-||
E:-0-0-0-0—--0-0-0-0-0—--0-0-0-0-0-0-0-0-0---0-0-0-0-0-0-0-3-5-||
                         Palm Mute
E:---------||        E: --------||
B:---------||        B: --------||
G: 3-2-0---||        G: 3----5--||
D: 3-2-0-2~|| X3     D: 3--3—5--||
A: 1-0-0-2~||        A: 1--3—3--||
E: ------0~||        E: ---1----||

      
E: ------------------------------------------------------------||
B: ------------------------------------------------------------||
G: 5/7-777777777777-5/7-777777777777-333333333333--------------||
D: 5/7-777777777777-5/7-777777777777-333333333333-555555555555-|| X4
A: 3/5-555555555555-3/5-555555555555-111111111111-555555555555-||
E: -----------------------------------------------333333333333-||




E: ------------------------------------------------------------||
B:-------------------------------------------------------------||
G:-------------------------------------------------------------||
D:-2-2-2-2---2-2-2-2-2---2-2-2-2-2-2-2-2-2---2-2-2-2-2-2-2-5-7-|| X4
A:-2-2-2-2---2-2-2-2-2---2-2-2-2-2-2-2-2-2---2-2-2-2-2-2-2-5-7-||
E:-0-0-0-0—--0-0-0-0-0—--0-0-0-0-0-0-0-0-0---0-0-0-0-0-0-0-3-5-||
                         Palm Mute
E:---------||        E: -------||
B:---------||        B: -------||
G: 3-2-0---||        G: 3----5-||
D: 3-2-0-2~|| X3     D: 3--3—5-||
A: 1-0-0-2~||        A: 1--3—3-||
E: ------0~||        E: ---1---||

E: ------------------------------------------------------------||  
B: ------------------------------------------------------------||        
G: 5/7-777777777777-5/7-777777777777-333333333333--------------||
D: 5/7-777777777777-5/7-777777777777-333333333333-555555555555-|| X4 
A: 3/5-555555555555-3/5-555555555555-111111111111-555555555555-||        
E: -----------------------------------------------333333333333-||  

E: ------||
B: ------||
G: 5-6-7~||
D: 5-6-7~||
A: 3-4-5~||
E: ------||



i hope this tab will help some of you guys to playing peter pan speedrock ^^
have fun :) i tabbed it all by hearing so if i missed some slides or so, i'm sorry :)




Important: The song above is NOT stored on the Chordie server. The original song is hosted at www.guitaretab.com. Chordie works as a search engine and provides on-the-fly formatting. Chordie does not index songs against artists'/composers' will. To remove this song please click here.

This song is displayed as text-only. Transposing and tuning is only available for chordpro-songs.

Login - add to songbook

Rating click stars to rate

Layout
Accuracy

SHARE PAGE  




You need to log in to post comments