Chordie logo

Sahabat   Peterpan



so, here he is, i don't think this tab is 100% correct,
but it sounds cool.. i think..

Guitar 1:
E----------------------------|
A-7-3-7-3-7-3-7-3------------|
D----------------------------|
G----------------------------|
B-7-3-7-3-7-3-7-3------------|
E----------------------------|

Guitar 2:
E----12--10-------12---10----|
A-12--------12--12--------12-|
D----------------------------|
G----------------------------|
B----------------------------|
E----------------------------|

well, i think this is it.. you could also do this without 2nd guitar..but it would kinda 
empty.

well that's it i think.

Rachman tjahjono, the netherlands



Important: The song above is NOT stored on the Chordie server. The original song is hosted at www.guitaretab.com. Chordie works as a search engine and provides on-the-fly formatting. Chordie does not index songs against artists/composers will. To remove this song please click here.

This song is displayed as text-only. Transposing and tuning is only available for chordpro-songs.

Login - add to songbook

Rating click stars to rate

Layout
Accuracy

SHARE PAGE  



You need to log in to post comments