Why Cant I

Liz Phair

e|--0------0------3------3------0-------0------0------1------1---|

B|--1------3------3------1------3-------1------1------1------3---|
G|--0------0------0------0------2-------2------0------2------2---|
D|--2------2------0------0------2-------2------2------3------x---|
A|--3------3------2------x------0-------0------0------3------3---|
E|--0------0------3------x------0-------0------0------1------1---|

 123123123
e|---0-----0-----0---0-------0-----0-----0---0-------0-----0-----0---0-------|
B|-------8-----6-------3---------8-----6-------3---------8-----6-------3-----|
G|-5---5-----5-----5-----5-5---5-----5-----5-----5-5---5-----5-----5-----5---|
D|---------------------------------------------------------------------------|
A|---------------------------------------------------------------------------|
E|---------------------------------------------------------------------------|

 41413
e|---0-----0-----0-----0---0---|
B|-6-----8-----6-----8---------|
G|-----5-----5-----5-----5-----|
D|-----------------------------|
A|-----------------------------|
E|-----------------------------|


 CG
 Get a load of me, get a load of you
 Am7
Walking down the street, and I hardly know you
 F
It's just like we were meant to be

 CG
 Holding hands with you and we're out at night
 Am7
Got a girlfriend you say it isn't right
 F
And I've got someone waiting too

 F
 What if this is just the beginning
 G
 We're already wet, and we're going to go swimming
 AmFCG
 Why can't I breathe whenever I think about you
 AmFCG
 Why can't I speak whenever I talk about you
 FG
 It's inevitable, it's a fact that we're gonna get down to it
So tell me
 AmFCG
 Why can't I breathe whenever I think about you

e|---0-----0-----0---0-------0-----0-----0---0-------0-----0-----0---0-------|
B|-------8-----6-------3---------8-----6-------3---------8-----6-------3-----|
G|-5---5-----5-----5-----5-5---5-----5-----5-----5-5---5-----5-----5-----5---|
D|---------------------------------------------------------------------------|
A|---------------------------------------------------------------------------|
E|---------------------------------------------------------------------------|
e|---0-----0-----0-----0---0---|
B|-6-----8-----6-----8---------|
G|-----5-----5-----5-----5-----|
D|-----------------------------|
A|-----------------------------|
E|-----------------------------|


2nd verse+chorus (same chord pattern as the first)

Isn't this the best part of breaking up,
Finding someone else you can't get enough of,
Someone who wants to be with you too.

It's an itch we know we are going to scratch,
Gonna take a while, for this egg to hatch.
But wouldn't it be beautiful...

Here we go, we're at the beginning
We haven't f****d yet, but my heads spinning

Why can't I breathe whenever I think about you
Why can't I speak whenever I talk about you
It's inevitable, it's a fact that we're gonna get down to it
So tell me
Why can't I breathe whenever I think about you

Bridge:

 AmF
 High enough for you to make me wonder
Where it's goin'
 AmF
 High enough for you to pull me under
Somethin's growin'
 F
 out of this that we can control
 G
Baby I am dyin'

3rd chorus (same as the first and second but single strum)

Why can't I breathe whenever I think about you
Why can't I speak whenever I talk about you

Why can't I breathe whenever I think about you
Why can't I speak whenever I talk about you
It's inevitable, it's a fact that we're gonna get down to it
So tell me
Why can't I breathe whenever I think about you

Outro:

C(var?) C G G(var?) Am(var?)Am F F F(var?) F
e|-0-------0-------3-------3-------0-------0-------x-------x-------x-------x-|
B|-3-------1-------3-------1-------3-------1-------x-------1-------3-------1-|
G|-0-------0-------0-------0-------2-------2-------2-------2-------2-------2-|
D|-2-------x-------0-------x-------2-------x-------3-------3-------3-------3-|
A|-3-------x-------2-------x-------0-------x-------3-------x-------x-------x-|
E|-x-------x-------x-------x-------x-------x-------1-------x-------x-------x-|				



Am Am7 C F G
variations - click chord images
Transpose chords:
Tuning:
Cool service:
View: Size:
A  A  A
Rating:
Layout:
  • Currently 3.3/5 Stars.
  • 1
  • 2
  • 3
  • 4
  • 5
 
Accuracy:
  • Currently 4/5 Stars.
  • 1
  • 2
  • 3
  • 4
  • 5
 
click stars to rate
Chordie recommends:
Learn to play songs at Jamplay.com with video guitar lessons
Songbook:
Login to add this song to your songbook
Support the artist
Preview/buy this song
MSN Music
Why this non-profit ad?

 
login to add comments/video/corrections