Guitar Tabs, Chords and Lyrics


Anthem  Phantom Planet

-------------------------------------------------------------------------------



-------------------------------------------------------------------------------

[E]I [E7]qui[A]ck[Am]ly [E]ran back to get my guitar
[E(M)7(4]A pen and[A] s[B]ome paper
and on the second time it does that:

[E]Ev[E7]ery[A]one was singin' along

[Am]The[E] same notes the same song
[E(M)7(4]Or maybe [A]I [B]heard it wrong
Guitar 2 does a cool little arpeggio that goes like this:

[E]  [E7]   [A]  [Am]   [E]  [A#]   [A]  [B]                                                                                
e|----4----4----2----2----0----0----0-----2----------------------------------|
B|---5-5--3-3--2-2--1-1------------------0-----------------------------------|
G|-----------------------4-4--3-3--2-2--3------------------------------------|
D|---------------------------------------------------------------------------|
A|---------------------------------------------------------------------------|
E|---------------------------------------------------------------------------|


Guitar 2 comes in on "I quickly ran back to get my guitar / A pen and some paper"
and on "Everyone was singing along / The same notes the same song* / Or maybe I
heard it wrong"

(*) = A third guitar comes in here, and it plays:
e|--4--h5p4--4h5p4--4-h5p4-2-------------------------------------------------|
B|---------------------------------------------------------------------------|
G|---------------------------------------------------------------------------|
D|---------------------------------------------------------------------------|
A|---------------------------------------------------------------------------|
E|---------------------------------------------------------------------------|


Then it goes back to the normal chord progression until after the second chorus.
Then the guitar plays an A Chord (...^.) which leads into guitar 3 playing this:

e|---------------------------------------------------------------------------|
B|---------------------------------------------------------------------------|
G|-------1---2-1---------1----4-2-1------------------------------------------|
D|---2-4---------4---2-4------------4----------------------------------------|
A|---------------------------------------------------------------------------|
E|---------------------------------------------------------------------------|


The first guitar is palm muting the rhythm here

When "Everyone was singin' along ... " comes in, guitar 3 plays the interlude twice
before playing the 4-h5p4 thing; the other two guitars play what they did before.

After the lyrics are over, a little riff gets played (I didn't figure that out yet),
and after that, this outro is played:

e|--------------------------19-----------------------------------------------|
B|----17-16-17----17-16-17------17----17-16-17------17-----------------------|
G|--16----------16------------------16----------16---------------------------|
D|---------------------------------------------------------------------------|
A|---------------------------------------------------------------------------|
E|---------------------------------------------------------------------------|


And that's it. Here's the stage progression:

Intro
Verse 1
Bridge
Chorus
Verse 2
Bridge
Chorus
Interlude
Bridge
Chorus
Chorus
Outro
End on a dragged out E major down stroke

It's a really cool song, and if you only have one guitar player, then just play the chords
and the guitar 3 part for the interlude. It's not hard to sing and play at the same time
for this one.

Important: The song above is NOT stored on the Chordie server. The original song is hosted at www.guitaretab.com. Chordie works as a search engine and provides on-the-fly formatting. Chordie does not index songs against artists'/composers' will. To remove this song please click here.

Text color:
Chord color:
Chord grids: 
Font size:    
Page size: 

A A# Am B E E7
variations - click chord images

Login - add to songbook

Transpose chords

Tuning

Rating click stars to rate

Layout
Accuracy

SHARE PAGE  




You need to log in to post comments