Guitar Tabs, Chords and Lyrics


We Wait And We Wonder Acoustic  Phil Collins

e|--0h2-3-3/5-3-2-0-2-3-2-0--------------------------------------------------|


B|--------------------------3-0-3-0------------------------------------------|


G|----------------------------------2-0-2--0h2-2-----------------------------|

D|---------------------------------------------------------------------------|
A|---------------------------------------------------------------------------|
E|---------------------------------------------------------------------------|
e|--0h2-3---5-3-2-0-2-3-2-0--------------------|
B|--------------------------3-0-3-0------------|
G|----------------------------------2-0-2-0h2--|
D|---------------------------------------------|
A|---------------------------------------------|
E|---------------------------------------------|
    [G]   [E]   [D/F]                           
e|--3--3--3-------------------------------------------------------------------|
B|--3--3--3-------------------------------------------------------------------|
G|--2--0--2-------------------------------------------------------------------|
D|--0--2--0-------------------------------------------------------------------|
A|--0--2--0-------------------------------------------------------------------|
E|--3--0--2-------------------------------------------------------------------|


Verse:

We [G]stand, hang our [D/F]heads disbelie[E]ving
then not k[G]nowing how could s[D/F]uch a thing be wron[E]g
we w[G]onder just [D/F]what they must be th[E]inking
to [G]take a life[D/F] of one so you[E]ng

Pre-Chorus

So tell me.. [E]when will it be [D/F]over now, ho[E]w soon?
how [E]far must we go, to [D/F]prove to [E]you?

Verse:

We wait and we wonder how this happened
killing the old, the innocent, the young
while sons follow in fathers footsteps not understanding
that what they do could somehow be so wrong

Pre-Chorus/Chorus

So tell me.. [E]when will it be [D/F]over now, ho[E]w soon?
how [E]far must we go, to [D/F]prove to [E]you?

So we will wait and we'll w[G]onder    [D/F]         [E]
INTERLUDE: G D/F E

Verse:

No regrets, no forgiveness, no compasssion
these brave heroes only know to hit and run
slowly my sadness turns to rage and we wonder
how can these scars ever heal, when all is said and done

Pre-Chorus/Chorus

So tell me.. [E]when will it be [D/F]over now, ho[E]w soon?
how [E]far must we go, to [D/F]prove to [E]you?

Please tell me..[E]when will it be [D/F]over now, ho[E]w soon?
how [E]far must we go, to [D/F]prove to [E]you?
So we wait and we wonde[G]r          [D/F]           [E]
The End

Important: The song above is NOT stored on the Chordie server. The original song is hosted at www.guitaretab.com. Chordie works as a search engine and provides on-the-fly formatting. Chordie does not index songs against artists'/composers' will. To remove this song please click here.

Text color:
Chord color:
Chord grids: 
Font size:    
Page size: 

D/F E G
variations - click chord images

Login - add to songbook

Transpose chords

Tuning

Rating click stars to rate

Layout
Accuracy

SHARE PAGE  




You need to log in to post comments