Guitar Tabs, Chords and Lyrics


Quiet Suddenly  Phil Keaggy

 -----------   -----------   -----------   -----------   -----------



 -----------   -----------   -----------   -----------   -----------

----------- ----------- ----------- ----------- -----------
----------- ----------- ----------- ----------- -----------
E---7----10-----8--7--3--|--0-----3-----0-------------|
B---8-----8-----8-----0--|--1-----1-----1-----3--0----|
G------0-----------------|-----0------------------2/0-|
D---0-----------5-----0--|----------------------------|
A------------------------|--3-----3-----0--------3----|
E------------------------|----------------------------|
E---7----10---8--7--5/3|--0-/3--3---3-----5/3-2-|--3-----3-----------------|
B---8---------6--------|--1-----1---1-----3---3-|-----------1--0-----------|
G------0--8---5--------|------0-----2-----------|-----0-----0--0-----------|
D---0---------5--------|------------0-----------|-----------2--------------|
A----------------------|--3---------------------|--------------------------|
E----------------------|------------------------|--3-----------3-----3--2--|
           it may be [D/F#]at the turning of a lane
           where i s[Am7]tand to watch a [G/B]skylark soar
           from [C]out of the swelling [D2sus/A]grain
           that the [Am7]trump of God shall [G/B]thrill me
           with its [C]call so loud and [Em/C#]clear
           and i'm [G]called [G/F#]away to [Am7]meet Him
           whom of [D/F#]all i hold most dear
(intro)
Em Cmajor7th
(verse 2) quiet suddenly
           it may be [D/F#]in His house as i bend my knee
           that the [Am7]kingly voice, long-[G/B]hoped-for
           comes at [C]last to summon [D2sus/A]me
           and the [Am7]fellowship of [G/B]earth-life
           that has [C]seemed so passing [Em/C#]sweet
           p[G]roves nothing [G/F#]but the [Am7]shadow of our
           [D/F#]meeting 'round His feet


(play first measure of intro)

quiet suddenly
           [F]quiet suddenly


Em Cmajor7th
(verse 3) quiet suddenly
it may be [D/F#]as i lie in dreamless sleep
       Am7            G/B               -------------|    listen to the CD.
 God's gift to many a sorrowing heart  -----<7>------|    you will hear phil
      C                D    --------->  -<7><7>------|    play the seventh
 with no more tears to weep            --<7>---------|    fret harmonics.
        Am7                 G/B         -------------|
 that a call shall break my slumber    --------------|

C Em/C# . 3 . 4 .
and a voice sound in my ear
"[G]rise up, my [G/F#]love and [Am7]come away"
be[D/F#]hold, the Bridegroom's [G]here

quiet suddenly

quiet suddenly

Important: The song above is NOT stored on the Chordie server. The original song is hosted at www.guitaretab.com. Chordie works as a search engine and provides on-the-fly formatting. Chordie does not index songs against artists'/composers' will. To remove this song please click here.

Text color:
Chord color:
Chord grids: 
Font size:    
Page size: 

Am7 C D/F# Em/C# F G G/B G/F#
variations - click chord images

Login - add to songbook

Transpose chords

Tuning

Rating click stars to rate

Layout
Accuracy

SHARE PAGE  




You need to log in to post comments