Lawnboy

Phish

 Emaj7C#7F#m9B13Emaj7Bm7Emaj7Bm7
                                               P-O               P-O
E--------------9----(9)-------------------(7)--9-7----------(7)--9-7------|
B-----9--------9---- 9--9--------------9---7---7---------9---7---7--------|
G-----8-------10-----9--8--------------8---7---7---------8---7---7--------|
D-----9--------9-----7--7--------------9---7---7---------9---7---7--------|
A--7--7-------11-----9-----------7--7-----------------7-------------------|
E-------7-8-9--9--------7---7--9----------(7)-------7-------(7)-(7)---7---|


 Emaj7Bm7
 Throughout the night
 Emaj7Bm7
when there's no direct light
 Emaj7Bm7
and a thin veil of clouds
 Bm7A#m7
keeps the stars out of sight

 ACD
 I can smell the colors
 Emaj7C#7
outside on my lawn
 F#m9
the moist green organic
 B13
that my feet tread upon

 Emaj7Bm7
and the black oleander
 Emaj7Bm7A#m7ACD
surrounded by blues                
 Emaj7C#7F#m9
              I get so overwhelmed
 B13Emaj7
    by olfactory hues

Lawn Boy solo

e-------------------------------------------------------------------|
b----------------------s14-12---------------------------------------|
g----------------------------13-------------------------------------|
d------11h13-13-9-11-9----------14s13s14----------------------------|
a-------------------------------------------------------------------|
E-------------------------------------------------------------------|
e--------------------------------------7-10-7h9-7-------------------|
b------------------------s14-12-------7----------7------------------|
g------------------------------13----7------------7-----------------|
d------11h13-11h13-9-11-9--------14----------------9s11-------------|
a-------------------------------------------------------------------|
E-------------------------------------------------------------------|
e-----5-7-7h8-7-5--------------9---------------9--12-10h11------------|
b----5------------7s9------------12-9h10-----9------------12---9------|
g---5------------------------------------9-11-----------------9-11s13-|
d---------------------11-10-s11------------------------------9--------|
a---------------------------------------------------------------------|
E---------------------------------------------------------------------|
e-----------------------------------------14-12---------12----------|
b------------------------------s14-12-----------14------------------|
g--------11h13-11h13-11-9-11-9-------13------------13h14—14s13------|
d--------------------------------------14---------------------14----|
a------14-----------------------------------------------------------|
E-------------------------------------------------------------------|
e--------------12----------------------------------------------------|
b----------------12-12h14-12--------------14—12s14-9h10--------------|
g—----------14-------------------------------------------------------|
d------12-14----------------------11-10s11---------------------------|
a--------------------------------------------------------------------|
E--------------------------------------------------------------------|				








A A#m7 B13 Bm7 C C#7 D Emaj7 F#m9
variations - click chord images
Transpose chords:
Tuning:
Cool service:
View: Size:
A  A  A
Rating:
Layout:
  • Currently 4/5 Stars.
  • 1
  • 2
  • 3
  • 4
  • 5
 
Accuracy:
  • Currently 4/5 Stars.
  • 1
  • 2
  • 3
  • 4
  • 5
 
click stars to rate
Chordie recommends:
Check out JamPlay.com for online video guitar lessons
Songbook:
Login to add this song to your songbook
Support the artist
Preview/buy this song
MSN Music
Why this non-profit ad?

 
login to add comments/video/corrections