"yes"; ?> Kaibigan by Phylum - guitar chords, guitar tabs and lyrics - chordie

Kaibigan

Phylum

e|-----5-7-9-7-5------5-7-9-7-10-|

B|---7--------------7------------|
G|-7--------------7--------------| 2X
D|-------------------------------|
A|-------------------------------|
E|-------------------------------|
e|-17-15-14-12-14--17-15-14-12-10-|
B|--------------------------------|
G|--------------------------------|
D|--------------------------------|
A|--------------------------------|
E|--------------------------------|

 GBmEm
Kaibigan, tila yata matamlay, ang iyong pakiramdam
 GBmEm
At ang ulo mo sa kakaisip,ay tila ay nagugulughan
 GBmGBm
Kung ang problema mo o suliranin ay lagi mong didibdibin
 EmF#m
Ay tatanda kang bigla, pag tumulo ang luha
 GA
Hahaba ang iyong mukha, at ikaw ang siyang kawawa

 Bm-Em-Bm-G
ADLIB:

rhythms: G-Bm-G-Bm (2x)

lead:
e|-17-----------------------------|
G|----15-17-171717/19-17-14-12-14-|
B|--------------------------------| 4x
D|--------------------------------|
A|--------------------------------|
E|--------------------------------|


BRIDGE:

F(pause) C(pause)
Kasama mo ako, kasama rin kita
D(pause)
Sa hirap at ginhawa
F(pause) C(pause)
Akong kagabay mo, may dalang pag-asa
D(pause)
Limutin siya, limutin siya, marami pang iba...

 DGDG
Kaibigan, kalimutan mo na lang ang lahat ng nakalipas 
 DGDG
Kung nasilaw siya, napasama sa ibang landas 
 DG
Kaibigan...
D(pause)
Marami pang malalapitan, mababait at hindi naman pihikan...

A Bm D Em F#m G
variations - click chord images
Transpose chords:
Tuning:
Cool service:
View: Size:
A  A  A
Rating:
Layout:
  • Currently 2.5/5 Stars.
  • 1
  • 2
  • 3
  • 4
  • 5
 
Accuracy:
  • Currently 3/5 Stars.
  • 1
  • 2
  • 3
  • 4
  • 5
 
click stars to rate
Chordie recommends:
Check out JamPlay.com for online video guitar lessons
Songbook:
Login to add this song to your songbook
Support the artist
Preview/buy this song
MSN Music
Why this non-profit ad?

 
login to add comments/video/corrections