Chordie logo

Atjeedzies   Pienvedeeja Piedziivojumi



So, these are my second tab, so here you go!

Bass Intro:                             Then comes guitar (Palm Muted)
e|-----------------------------------|--------------------------------|
B|-----------------------------------|--------------------------------|
G|---------------------------------o-|-99999--------------------------|
D|---------------------------------o-|-99999-99-10-10-10-10-10-10-777-|
A|-7-7-7-7-7-------------------------|-77777-99-10-10-10-10-10-10-777-|
E|-----------7-7-8-8-8-8-8-8-5-5-5---|-------77--8--8--8--8--8--8-555-|
                                       
 Verse: (Palm Muted)                                     
e|--------------------------------|
B|--------------------------------|
G|-99999--------------------------|
D|-99999-99-10-10-10-10-10-10-777-|
A|-77777-99-10-10-10-10-10-10-777-|
E|-------77--8--8--8--8--8--8-555-|

Chorus:
Just strum these chords in sequence, like on the song.
e|-------------------------------|------------------|
B|-------------------------------|------------------|Second bar need to 
G|-o----4--5--2----------------o-|----4--5--2-----o-|be played with
D|-o-2--4--5--2----------------o-|-2--4--5--2-----o-|Palm Muted
A|---2--2--3--0------------------|-2--2--3--0-------|
E|---0---------------------------|-0----------------|
  Tik liidz atjeedzies...         Nee, nee, man nevajag...

After that: (P.M) play it as Verse too.
e|--------------------------------|
B|--------------------------------|
G|-99999--------------------------|
D|-99999-99-10-10-10-10-10-10-777-|
A|-77777-99-10-10-10-10-10-10-777-|
E|-------77--8--8--8--8--8--8-555-|

Chorus:
e|--------------------------------------------|
B|--------------------------------------------| 
G|o----4--5--2------------------4--5--2-----o-|
D|o-2--4--5--2---------------2--4--5--2-----o-|
A|--2--2--3--0---------------2--2--3--0-------|
E|--0------------------------0----------------|
  Tik liidz atjeedzies...

Interlude:                     
e|-----------|-------------------|
B|-----------|-------------------|Repeat this bar
G|-----------|-o---------------o-|7 times.
D|-----------|-o---------------o-|
A|-777-77777-|--5-5h7-777777-----|
E|-----------|-------------------|

Then...
e|--------------------------|
B|--------------------------|Repeat this bar
G|-o---------------------o--|16 times.
D|-o---------------------o--|
A|---33-00-00000------------|
E|--------------------------|
over this riff, there is a solo, but I coudn`t figure it out, so this is the rytm.           

Chorus:
e|-------------------------------|------------------|
B|-------------------------------|------------------|Second bar  
G|----4--5--2------------------o-|----4--5--2-----o-|with Palm Muted
D|-2--4--5--2------------------o-|-2--4--5--2-----o-|
A|-2--2--3--0--------------------|-2--2--3--0-------|
E|-0-----------------------------|-0----------------|
  Tik liidz atjeedzies...         Nee, man nevajag...

Outro:(Palm Muted)
e|--------------------------------|

B|--------------------------------|
G|-99999--------------------------|
D|-99999-99-10-10-10-10-10-10-777-|
A|-77777-99-10-10-10-10-10-10-777-|
E|-------77--8--8--8--8--8--8-555-|

If any coments, send at deivids50@inbox.lv


Important: The song above is NOT stored on the Chordie server. The original song is hosted at www.guitaretab.com. Chordie works as a search engine and provides on-the-fly formatting. Chordie does not index songs against artists/composers will. To remove this song please click here.

This song is displayed as text-only. Transposing and tuning is only available for chordpro-songs.

Login - add to songbook

Rating click stars to rate

Layout
Accuracy

SHARE PAGE  

You need to log in to post comments