Guitar Tabs, Chords and Lyrics


Yeah Boy And Doll Face   Pierce The Veil



Pierce The Veil
Yeah Boy And Doll Face Tab


standard tuning...^^

intro:
(0:01)[where you honest when you said...]
|-------------------------------|
|-555555-555555-444444-444444---|
|-666666-666666-444444-555555---|
|-666666-666666-444444-444444---|
|-444444-000000-666666-666666---|
|-------------------------------|

[wake me up and let me...]
|-------------------------------|
|-555555-555555-444444-444444---|
|-666666-666666-444444-555555---|
|-666666-666666-444444-444444---|
|-444444-000000-666666-666666---|
|-------------------------------|

(0:12)[and will you fall...]
|-------------------------------|
|-555555-555555-555555555555----|
|-666666-666666-666666666666----|
|-666666-666666-666666666666----|
|-444444-xxxxxx-000000000000----|
|--------666666-----------------|

[i've been answering...]
|-------------------------------|
|-555555-555555-444444-444444---|
|-666666-666666-444444-555555---|
|-666666-666666-444444-444444---|
|-444444-000000-666666-666666---|
|-------------------------------|

the next parts of the intro is still unfigured... maybe you can help..^^

then:(0:33)
|--------------------------------------------|
|--------------------555555-444444-444444----|
|----------9--8------666666-444444-555555----|
|-1111111--11-11-77--666666-444444-444444----|
|-1111111--------77--444444-666666-666666----|
|-9-9-9-9--------55--------------------------|

then:
|--------------|------------|
|--------------|------------|
|-9--9---8--8--|--9---8-----|
|-11-11--11-11-|--11--11----|
|--------------|------------|
|--------------|------------|
       x3

then:(0:49)
|-------------------|
|-10/12p10p9---7b---|
|-------------------|
|-------------------|
|-------------------|
|-------------------|

then:
|-------------------------------|
|-555555-555555-444444-444444---|
|-666666-666666-444444-555555---| x2
|-666666-666666-444444-444444---|
|-444444-000000-666666-666666---|
|-------------------------------|

(1:00)
|----------------------------------|-0-----0-------------------|
|-9-9-7-7-5------------------------|---2-----4-0---0-----4-4---|
|-x-x-x-x-x---------------1-1-1-2--|-----1-------1-------4-5---|
|-6-6-4-4-2--2-2-4-4-4--4----------|---------------------4-4---|
|----------------------------------|---------------------------|
|----------------------------------|---------------------------|

next is:(1:12)
|-------7-------------------|
|---9-7------9-7----9-7-----|
|-7--------7------7---------|
|---------------------------|
|---------------------------|
|---------------------------|


then:
|--------------------------------------------|
|--------------------555555-444444-444444----|
|----------9--8------666666-444444-555555----|
|-1111111--11-11-77--666666-444444-444444----|
|-1111111--------77--444444-666666-666666----|
|-9-9-9-9--------55--------------------------|


then play intro again...
|-------------------------------|
|-555555-555555-444444-444444---|
|-666666-666666-444444-555555---|
|-666666-666666-444444-444444---| x2
|-444444-000000-666666-666666---|
|-------------------------------|


next parts are still sketchy, so i'll figure them out later...^^

here's some more:
(3:24?)
|-----------------------|
|-9--9-9h10--9-7-5-5h7--|
|--12-------------------|
|-----------------------| x2?
|-----------------------|
|-----------------------|

outro:
|-----------------------|
|-----10--9-------------|
|-----------9-----------|
|-----------------------| x alot
|-----------------------|
|-----------------------|



Important: The song above is NOT stored on the Chordie server. The original song is hosted at www.guitaretab.com. Chordie works as a search engine and provides on-the-fly formatting. Chordie does not index songs against artists/composers will. To remove this song please click here.

This song is displayed as text-only. Transposing and tuning is only available for chordpro-songs.

Login - add to songbook

Rating click stars to rate

Layout
Accuracy

SHARE PAGE  




You need to log in to post comments