Guitar Tabs, Chords and Lyrics


Beautiful Savior   Pillar



Beautiful Savior by Pillar
(i really hope thats the right name and artist)
Normal tuning (EBGDAE)

Key:
~ = vibrato
h + hammer-on
/ = slide


This is how the song starts off and is mostly the same through the song.
I could not hear a change. I'll call this the verse:

  G                       C
e|-------------3----------|-------------3----------|
B|-------3-----------3----|-------3-----------3----|
G|------------------------|------------------------|
D|----5-----5-----5-----5-|----5-----5-----5-----5-|
A|------------------------|-3----------------------|
E|-3----------------------|------------------------|


  Em                       D
e|-------------0----------|-------------2h3-------|
B|-------3-----------3----|-------3-------------0-|
G|------------------------|----2-----2------------|
D|----------2-----2-----2-|-0----------------0----|
A|----2-------------------|-----------------------|
E|-0----------------------|-----------------------|


After they play that a couple of times a sort of pre-solo thing gets mixed in with the 
of the band. I could not make out the notes but when it gets clearer it sounds like this:

e|-3--3-2-0-2-3------------------0--------------12----12----10-|
B|--------------3~-------------3---8-7---7-8-10----12----12----|
G|--------------------0-2--2/4---------9-----------------------|
D|------------------0------------------------------------------|
A|-------------------------------------------------------------|
E|-------------------------------------------------------------|

e|----15-14-12------------------3-2-3-| < The verse starts again on the
B|-15----------15-12-15---12-10-------|   last note of the solo so have your
G|------------------------------------|   fingers ready
D|------------------------------------|
A|------------------------------------|
E|------------------------------------|
                      ^ let that 15 ring for a few beats before continuing

You can try to find anharmonic notes to play to make it simpler for your fingers not to 


Important: The song above is NOT stored on the Chordie server. The original song is hosted at www.guitaretab.com. Chordie works as a search engine and provides on-the-fly formatting. Chordie does not index songs against artists/composers will. To remove this song please click here.

This song is displayed as text-only. Transposing and tuning is only available for chordpro-songs.

Login - add to songbook

Rating click stars to rate

Layout
Accuracy

SHARE PAGE  




You need to log in to post comments