|-2----2----2----2----2----2----2----2--|

|-3-----3---------3---------3---------3-|
|-2--2---------2---------2---------2----|
|-0-0---------0---------0---------0-----|
|---------------------------------------|
|---------------------------------------|
|-2----2----2----2----2----2----2----2--|
|-3-----3---------3---------3---------3-|
|-2--2---------2---------2---------2----|
|-0-0---------0---------0---------0-----|
|---------------------------------------|
|---------------------------------------|
|-------2----2----2----2----1----1----1----1--|
|-------------3---------3------0--0------0--0-|
|----------2---------2--------0---------0-----|
|---------0---------0-------------------------|
|---------------------------------------------|
|---------------------------------------------|
|--------------------------------19b20b19-----|
|-19b20b19------------------------------------|
|---------------------------------------------|
|---------------------------------------------|
|---------------------------------------------|
|---------------------------------------------|
|-------2----2----2----2----1----1----1----1--|
|-------------3---------3------0--0------0--0-|
|----------2---------2--------0---------0-----|
|---------0---------0-------------------------|
|---------------------------------------------|
|---------------------------------------------|
|--------------------------------19b20b19-----|
|-19b20b19------------------------------------|
|---------------------------------------------|
|---------------------------------------------|
|---------------------------------------------|
|---------------------------------------------|
|-------2----2----2----2-----------------------3----3--3----3--|
|-------------3---------3---9----9----9----9-------------------|
|----------2---------2------------9---------9--------0-------0-|
|---------0---------0----------9---------9--------2-------2----|
|-----------------------------7---------7--------0-------0-----|
|--------------------------------------------------------------|
|---------------------16b17b16----------------|
|---------------------------------------------|
|---------------------------------------------|
|---------------------------------------------|
|---------------------------------------------|
|---------------------------------------------|
|-2-------2---0-------0-----2-----2-0-|
|-3---3-----------3-----3---1---1-----|
|-2-----------------2-------2-2-------|
|-0-0---0---0---0---0-------0---------|
|-------------------------0-----------|
|-------------------------------------|

 GA
   And if the dam breaks open many years too soon

 CG
And if there is no room upon the hill    

 GA7
   And if your head explodes with dark forebodings too

 CGBm7Em7A
I'll see you on the dark side of the moon.                

|-2----2----2----2----2----2----2----2--|
|-3-----3---------3---------3---------3-|
|-2--2---------2---------2---------2----|
|-0-0---------0---------0---------0-----|
|---------------------------------------|
|---------------------------------------|
|-2----2----2----2----2----2----2----2--|
|-3-----3---------3---------3---------3-|
|-2--2---------2---------2---------2----|
|-0-0---------0---------0---------0-----|
|---------------------------------------|
|---------------------------------------|


during singing:
Guitar 1:
|-------2----2----2----2----1----1----1----1--|
|-------------3---------3------0--0------0--0-|
|----------2---------2--------0---------0-----|
|---------0---------0-------------------------|
|---------------------------------------------|
|---------------------------------------------|


Guitar 2:
|--------------------------------19b20b19-----|
|-19b20b19------------------------------------|
|---------------------------------------------|
|---------------------------------------------|
|---------------------------------------------|
|---------------------------------------------|


Guitar 1:
|-------2----2----2----2----1----1----1----1--|
|-------------3---------3------0--0------0--0-|
|----------2---------2--------0---------0-----|
|---------0---------0-------------------------|
|---------------------------------------------|
|---------------------------------------------|


Guitar 2:
|--------------------------------19b20b19-----|
|-19b20b19------------------------------------|
|---------------------------------------------|
|---------------------------------------------|
|---------------------------------------------|
|---------------------------------------------|


Guitar 1:
|-------2----2----2----2-----------------------3----3--3----3--|
|-------------3---------3---9----9----9----9-------------------|
|----------2---------2------------9---------9--------0-------0-|
|---------0---------0----------9---------9--------2-------2----|
|-----------------------------7---------7--------0-------0-----|
|--------------------------------------------------------------|


Guitar 2:
|---------------------16b17b16----------------|
|---------------------------------------------|
|---------------------------------------------|
|---------------------------------------------|
|---------------------------------------------|
|---------------------------------------------|


Guitar 1:
|-2-------2---0-------0-----2-----2-0-|
|-3---3-----------3-----3---1---1-----|
|-2-----------------2-------2-2-------|
|-0-0---0---0---0---0-------0---------|
|-------------------------0-----------|
|-------------------------------------|


No Guitar 2

 GA
   And if the cloud bursts, thunder in your ear

 CG
   You shout and no one seems to hear.

 AA7A
And if the band you're in starts playing different tunes

 CGBm7EmA
I'll see you on the dark side of the moon.            

|-2----2----2----2----2----2----2----2--|
|-3-----3---------3---------3---------3-|
|-2--2---------2---------2---------2----|
|-0-0---------0---------0---------0-----|
|---------------------------------------|
|---------------------------------------|
|-2----2----2----2----2----2----2----2--|
|-3-----3---------3---------3---------3-|
|-2--2---------2---------2---------2----|
|-0-0---------0---------0---------0-----|
|---------------------------------------|
|---------------------------------------|


during singing:
Guitar 1:
|-------2----2----2----2----1----1----1----1--|
|-------------3---------3------0--0------0--0-|
|----------2---------2--------0---------0-----|
|---------0---------0-------------------------|
|---------------------------------------------|
|---------------------------------------------|


Guitar 2:
|--------------------------------19b20b19-----|
|-19b20b19------------------------------------|
|---------------------------------------------|
|---------------------------------------------|
|---------------------------------------------|
|---------------------------------------------|


Guitar 1:
|-------2----2----2----2----1----1----1----1--|
|-------------3---------3------0--0------0--0-|
|----------2---------2--------0---------0-----|
|---------0---------0-------------------------|
|---------------------------------------------|
|---------------------------------------------|


Guitar 2:
|--------------------------------19b20b19-----|
|-19b20b19------------------------------------|
|---------------------------------------------|
|---------------------------------------------|
|---------------------------------------------|
|---------------------------------------------|


Guitar 1:
|-------2----2----2----2-----------------------3----3--3----3--|
|-------------3---------3---9----9----9----9-------------------|
|----------2---------2------------9---------9--------0-------0-|
|---------0---------0----------9---------9--------2-------2----|
|-----------------------------7---------7--------0-------0-----|
|--------------------------------------------------------------|


Guitar 2:
|---------------------16b17b16----------------|
|---------------------------------------------|
|---------------------------------------------|
|---------------------------------------------|
|---------------------------------------------|
|---------------------------------------------|


Guitar 1:
|-2-------2---0-------0-----2-----2-0-|
|-3---3-----------3-----3---1---1-----|
|-2-----------------2-------2-2-------|
|-0-0---0---0---0---0-------0---------|
|-------------------------0-----------|
|-------------------------------------|


No Guitar 2

____________________________________________________________________________

*Eclipse (Waters)*

intro:
 DADA
 D
 All that you touch

 D
 All that you see

 A#
 All that you taste

 A
 All that you feel

 D
 All that you love

 D
 All that you hate

 A#
 All you distrust

 A
 All that you save

 D
 All that you give

 D
 All that you deal

 A#
 All that you buy

 A
 beg, borrow or steal

 D
 All you create

 D
 All you destroy

 A#
 All that you do

 A
 All that you say

 D
 All that you eat

 D
 everyone you meet

 A#
 All that you slight

 A
 everyone you fight

 D
 All that is now

 D
 All that is gone

 A#
 All that's to come
 A
and everything under the

 D
 sun is in tune
 DAA#D
 but the sun is eclipsed by the moon.

A A# A7 Bm7 C D Em Em7 G
variations - click chord images
Transpose chords:
Tuning:
Cool service:
View: Size:
A  A  A
Rating:
Layout:
  • Currently 2.7/5 Stars.
  • 1
  • 2
  • 3
  • 4
  • 5
 
Accuracy:
  • Currently 2.8/5 Stars.
  • 1
  • 2
  • 3
  • 4
  • 5
 
click stars to rate
Chordie recommends:
Check out JamPlay.com for online video guitar lessons
Songbook:
Login to add this song to your songbook
Support the artist
Preview/buy this song
MSN Music
Why this non-profit ad?

 
login to add comments/video/corrections

zporobija (report comment to admin):
Well, the refrain is quite wrong. It's G A C...
terrapinshell1717 (report comment to admin):
i think it should work now
krzykat (report comment to admin):
The      lunatic is in my head

-2-------2---2---------2-----1-------1---1-------1----
-3---3-------3-----3---------0---0-------0---0--------
-2-----2-----2-------2-------0-----0-----0-----0------
---0-------0-----0--------0----0-------0---0-------0--
------------------------------------------------------
------------------------------------------------------


The lunatic is in my head
-2-------2----2-------2----1-------1---1-------1----
-3---3--------3---3--------0---0-------0---0--------
-2-----2------2-----2------0-----0-----0-----0------
---0-------0----0-------0----0-------0---0-------0--
----------------------------------------------------
----------------------------------------------------


You raise the blade, You make the change
-2-----------2-------2-------2---4--------------4----4-------4----
-3------3------------3---3-------5--------5----------5---5--------
-2---------2---------2-----2-----4-----------4-------4-----4------
-0----0---------0------0-------0-0-----0-----------0-0-0--------0-
------------------------------------------------------------------
------------------------------------------------------------------

You re-arrange me till I'm sane
-3--------------3------------------2-------2----0-----0--------
-2-------2------2------------2-----3---3--------3-3------------
-2---2-2--------2------2---2-------2-----2------2--------2--2--
-2--------------2------------------0-0-------0--0---0----0--0--
---0---------0-------0----------0------------------------------
---------------------------------------------------------------