Chordie logo
content loaded from cache

BRAIN DAMAGE  Pink Floyd

[D]The lunatic is on the grass[G7]
[D]The lunatic is on the[G7] grass
[D]Remembering games and daisy chains and l[E]aughs
[A7]Got to keep the loonies on the[D] path.
[D]The lunatic is in [G7]the hall
[D]The lunatics are in my [G7]hall
[D]The paper holds their fol[E]ded faces to the floor
And ever[A7]y day the paperboy brings more[D]
[D/F#]And if the dam breaks op[E]en many years too soon
And if [G]there is no room upon the hill[D/F#]
And if your head explodes with[E] dark forbodings too
I'll [G]see you on the dark side[D/F#] of the moon.
[D]The lunatic is in m[G7]y head
[D]The lunatic is in m[G7]y head
[D]You raise the blad[E]e,you make the change
[A7]You rearrange me till I'm sa[D]ne
[D]You lock the door and t[E]hrow away the key
There's someo[A7]ne in my head but it's not me[D]
[D/F#]                        [E]  And if the cloud bursts thunder in your ear
[G]You shout and no one seems to h[D/F#]ear
And if the band you're in start[E]s playing different tunes
I'll [G]see you on the dark side of th[D/F#]e moon
For the rest of the song it plays the same chord progression as in the
verses
and then it goes into the song "Eclipse"

Important: The song above is NOT stored on the Chordie server. The original song is hosted at www.guitaretab.com. Chordie works as a search engine and provides on-the-fly formatting. Chordie does not index songs against artists/composers will. To remove this song please click here.

A7 D D/F# E G G7
variations - click chord images

Transpose chords

Tuning

Rating click stars to rate

Layout
Accuracy

SHARE PAGE  

You need to log in to post comments

krzykat (report)

The lunatic is in my head
-2-------2---2---------2-----1-------1---1-------1----
-3---3-------3-----3---------0---0-------0---0--------
-2-----2-----2-------2-------0-----0-----0-----0------
---0-------0-----0--------0----0-------0---0-------0--
------------------------------------------------------
------------------------------------------------------


The lunatic is in my head
-2-------2----2-------2----1-------1---1-------1----
-3---3--------3---3--------0---0-------0---0--------
-2-----2------2-----2------0-----0-----0-----0------
---0-------0----0-------0----0-------0---0-------0--
----------------------------------------------------
----------------------------------------------------


You raise the blade, You make the change
-2-----------2-------2-------2---4--------------4----4-------4----
-3------3------------3---3-------5--------5----------5---5--------
-2---------2---------2-----2-----4-----------4-------4-----4------
-0----0---------0------0-------0-0-----0-----------0-0-0--------0-
------------------------------------------------------------------
------------------------------------------------------------------

You re-arrange me till I'm sane
-3--------------3------------------2-------2----0-----0--------
-2-------2------2------------2-----3---3--------3-3------------
-2---2-2--------2------2---2-------2-----2------2--------2--2--
-2--------------2------------------0-0-------0--0---0----0--0--
---0---------0-------0----------0------------------------------
---------------------------------------------------------------

terrapinshell1717 (report)

i think it should work now

zporobija (report)

Well, the refrain is quite wrong. It's G A C...