Breathe

Pink Floyd

 Emadd9AEmadd9ABm7A7
-----0v---0--------------------|----0v------------------------------
-----0v-----0---------2---3-2--|----0v---0-------------3-----2------
-----0v---------2---2---2------|----0v-----0--2-----------0------0--
-----4v---------2--------------|----4v--------2-----/4------4-------
-----2v---------0--------------|----2v--------0---------------------
-0-----------------------------|-0----------------------------------

Lap Steel tuned, low to high, E B E G B E (Em)
W/slide
-12--------------|-----------|---------|---/22\---------------------
-12-------12/14--|19---------|12-------|---/22\---------------------
----------12/14--|-----19/21-|---12/14-|---/22\---------------------
-----------------|-----19/21-|---12/14-|----------------------------
-----------------|-----------|---------| During verse (A)-----------
-----------------|-----------|---------|----------------------------

CHORUS
 Cmaj7BmFGDmEbEmadd9
-0-----------2---------------------------------|----0v--------------
-0----0--0---3-------1-------------3-----------|----0v--------------
-0----0--0---4-------2------2------4-----------|----0v--------------
-2----2--2---4-------3----3--------5-----------|----4v--------------
-3-----------2-------3-------------5------5---6|----2v--------------
---------------------1-------------3-----------|0-------------------

W/slide
-----------------------------------------------|--------------------
-12----------12----12/13\12--10----8------6---4/5-------------------
-----------------------------------------------|--------------------
-----------------------------------------------|--------------------
-----------------------------------------------|--------------------
-----------------------------------------------|--------------------

Breathe...
Breathe - Breathe in the air... Don't be afraid to care
Breathe - But don't leave me...Look around, choose your own ground
Long you'll live and high you'll fly; smiles you'll give and tears
you'll cry;
All you touch and all you see is all your life will ever be
Run, rabbit, run; dig that hole - forget the sun;
When at last the work is done, don't sit down-it's time to dig another
one...
Long you'll live and high you'll fly; only if you ride the tide...
Balanced on the biggest wave, you race towards an early grave.
Calvin






















A A7 Bm Bm7 Cmaj7 Dm Eb Emadd9 F G
variations - click chord images
Transpose chords:
Tuning:
Cool service:
View: Size:
A  A  A
Rating:
Layout:
  • Currently 2.9/5 Stars.
  • 1
  • 2
  • 3
  • 4
  • 5
 
Accuracy:
  • Currently 3/5 Stars.
  • 1
  • 2
  • 3
  • 4
  • 5
 
click stars to rate
Chordie recommends:
Get acoustic guitar lessons and electric guitar lessons at JamPlay.com
Songbook:
Login to add this song to your songbook
Support the artist
Preview/buy this song
MSN Music
Why this non-profit ad?

 
login to add comments/video/corrections