Lucifer Sam

Pink Floyd

|----|--------------------------------|

|----|--------------------------------|
|----|--------------------------------|
|----|--------------------------------| x4
|----|------4-4-----3-----2-2-----0---|
|-0--|--0-2------2-----2-------2------|
|-------------------------------------|
|-------------------------------------|
|-------------------------------------|
|-------2-2-----1-----0-0-------------| x2
|-0-1-2------2-----2-------2--4-------|
|-------------------------------------| |-------------------------------------| |-------------------------------------| |-------------------------------------| |-------------------------------------| x2 |-------4-4-----3-----2-2-----0-------| |---0-2------2-----2-------2----------|

 F#mG
 Lucifer Sam, siam cat.
 B
 Always sitting by your side
 E
Always by your side.
 CGD
 That cat's something I can't explain.

|-------------------------------------|
|-------------------------------------|
|-------------------------------------|
|-------------------------------------|     x4
|------4-4-----3-----2-2-----0--------|
|--0-2------2-----2-------2-----------|
|-------------------------------------|
|-------------------------------------|
|-------------------------------------|
|-------2-2-----1-----0-0-------------|     x2
|-0-1-2------2-----2-------2--4-------|
|-------------------------------------|
|-------------------------------------|
|-------------------------------------|
|-------------------------------------|
|-------------------------------------|
|---4-4-----3-----2-2-----0-----------|
|--------2-----2-------2--------------|
|-------------------------------------|
|-------------------------------------|
|-------------------------------------|
|-------------------------------------|
|--------4-4-----3-----2-2-----0------|
|---0-2-------2-----2-------2---------|


 F#mG
 Jennifer Gentle you're a witch.
 B
 You're the left side

He's the right side.
 E
 Oh, no!
 CGD
 That cat's something I can't explain.

F#m B G D B F#m (listen to the song for the chord changes)

 F#mG
 Lucifer go to sea.
 B
 Be a hip cat, be a ship's cat.
 E
 Somewhere, anywhere.
 CGD
 That cat's something I can't explain.

|-------------------------------------|
|-------------------------------------|
|-------------------------------------|
|-------------------------------------|     x4
|-------4-4-----3-----2-2-----0-------|
|---0-2------2-----2-------2----------|
|-------------------------------------|
|-------------------------------------|
|-------------------------------------|
|-------2-2-----1-----0-0-------------|     x2
|-0-1-2------2-----2-------2--4-------|
|-------------------------------------|
|-------------------------------------|
|-------------------------------------|
|-------------------------------------|
|-------------------------------------|     x2
|-------4-4-----3-----2-2-----0-------|
|---0-2------2-----2-------2----------|


 F#mG
 Night prowling sifting sand.
 B
 Padding around on the ground.
 E
He'll be found when you're around.
 CGD
 That cat's something I can't explain.

Shine on Syd, shine on.


B C D E F#m G
variations - click chord images
Transpose chords:
Tuning:
Cool service:
View: Size:
A  A  A
Rating:
Layout:
  • Currently 0/5 Stars.
  • 1
  • 2
  • 3
  • 4
  • 5
 
Accuracy:
  • Currently 4/5 Stars.
  • 1
  • 2
  • 3
  • 4
  • 5
 
click stars to rate
Chordie recommends:
Check out these online guitar lessons
Songbook:
Login to add this song to your songbook
Support the artist
Preview/buy this song
MSN Music
Why this non-profit ad?

 
login to add comments/video/corrections