""; ?> by Unknown - guitar chords, guitar tabs and lyrics - chordie
----------------------------------------------------------------|

--------0---------------0---------------0---------------0-------|
----0-------0-------0-------0-------0-------0-------0-------0---|
2---------------1---------------0---------------0---------------|
----------------------------------------------------------------|
----------------------------------------------------------------|
----------------------------------------------------------------|
----------------------------------------------------------------|
--------4---------------4---------------3---------------3-------|
----2-------2-------2-------2-------2-------2-------2-------2---|
4---------------4---------------3---------------3---------------|
----------------------------------------------------------------|
----------------------------------------------------------------|
----------------------------------------------------------------|
--------3---------------3---------------2---------------2-------|
----1-------1-------1-------1-------1-------1-------1-------1---|
3---------------3---------------2---------------2---------------|
----------------------------------------------------------------|
0-----------------------0---------------------------------------|
0-----------------------0---------------------------------------|
0-------0---1---0-------0---------------------------------------|
2-----------------------2---------------------------------------|
2-----------------------2---------------------------------------|
0-------------------0---0---------------------------------------|

 EmBmDAGDB
2.The Nile Song

Intro: A G A G A G F#

 BA
    I was standing by the Nile
 BA
    Whe I saw the lady smile.
 BAG#
    I would take her out for a while, for a while.

 C#B
    Light tears wept like a child.
 C#B
    How her golden hair was blowing wild.
 C#BA#
    Then she spread her wings to fly, for to fly.

 D#C#
    Soaring high above the breezes,
 D#C#
    Going always where she pleases.
 D#C#C
    She will make it to the island in the sun.

 FD#
    I will follow in her shadow
 FD#
    As I watch her from my window.
 FD#D
    One day I will catch her eye.  

solo: G F G F G F E
 AGAGAGF#
 BA
    She is calling from the deep,
 BA
    Summoning my soul to endless sleep.
 BAG#
    She is bound to drag me down, drag me down.

final solo: C# B C# B C# B A#
D# C# D# C# D# ... (fade out)

3.Crying Song

 DD(-5
We smiled and smiled
 DD(-5
We smiled and smiled
 DGEmD
 Laughter echoes in your eyes        
 DD(-5
We climbed and climbed
 DD(-5
We climbed and climbed
 DGEmD
 Foot falls softly in the pines       

BRIEF SOLO:
e-|--------------------------------------------||
B-|--------------------------------------------||
G-|--------------------------------------------||
D-|------------------------------------------0-||
A-|--0---4---0---5---0---6---0---7---0---7-----||
E-|--------------------------------------------||


 DD(-5
We cry and cry
 DD(-5
We cry and cry
 DGEmD
 Sadness passes in a while       
 DD(-5
We roll and roll
 DD(-5
We roll and roll
 DGEmD
 Help me roll away the stone      

4.Up The Khyber

No guitar that I can hear.

5.Green Is The Colour

 GC
---------------------------------------------------------------|
---------------------------------------------------------------|
--------------------------/4----2----0---------0--2--0-----0---|
------------------------------------------2-------------2------|
---------------------------------------------------------------|
---------------------------------------------------------------|


 GC
---------------------------------------3---3h5---3-----|
----------------------3--3h5p3--3h5-----------------5--|
------0-----0--2--/4-----------------------------------|
0--2-----2---------------------------------------------|
-------------------------------------------------------|
-------------------------------------------------------|


 GBmCEm
------------------------------------------------------|
3----3--5p3-----3-------------------------------------|
-------------4-----4--2-----0----0h2--0----------0h2--|
-------------------------2------------------0h2-------|
------------------------------------------------------|
------------------------------------------------------|


 D
-----------------------------------------------------------| Lead continues
-----------------------------------------------------------| into verse.
0--------0--0-----------------------0----------------------|
---------------2--0h2p0--------0h2-------0h2p0-------0--2--|0---
--------------------------------------------------2--------|
-----------------------------------------------------------|


*Verse 1*

 GC
 Heavy hung the canopy of blue

 GC
 Shade my eyes and I can see you

 GBmCEmD
 White is the light that shines through the dress that you wore

*Verse 2*

 GC
She lay in the shadow of the wave

 GC
 Hazy were the visions of her playing

 GBmCEmD
 Sunlight on her eyes but moonshine made her cry ev'ry time

*Verse 3*

 GC
 Green is the colour of her kind

 GC
 Quickness of the eye deceives the mind

 GBmCEmD
 Envy is the bond between the hopeful and the damned      

*Piano Solo*
G G G D (repeat and fade out)

6.Cymbaline

 EmDEmD
 Am
 The path you tread is narrow
 Bm
 And the drop is shear and very high
 Am
 The ravens all are watching
 Bm
 From a vantage point nearby
 Am
 Apprehension creeping
 Bm
 Like a tube-train up your spine
 Am
 Will the tightrope reach the end;
 Bm
 Will the final couplet rhyme

 C
And it's high time
 Fmaj7
 Cymbaline
 C
It's high time
 Fmaj7
 Cymbaline
 Em
Please wake me

Butterfly with broken wings is falling by your side
The ravens all are closing in there's no where you can hide
Your manager and agent are both busy on the phone
Selling colored photographs to magazines back home
And it's high time
Cymbaline
It's high time
Cymbaline
Please wake me

The lines converging where you stand they must have moved the picture plane
The leaves are heavy around your feet you hear the thunder of the train
Suddenly it strikes you that they're moving into range
Doctor Strange is always changing size
And it's high time
Cymbaline
It's high time
Cymbaline
Please wake me

And it's high time
Cymbaline
It's high time
Cymbaline
Please wake me

7.Party Sequence

No guitar.

8.Main Theme

no guitar.

9.Ibiza Bar

INTRO:

 EDEDEDACGBbFA
 ED
 I'm so afraid of the mistakes that I've made
 ED
 I shake every time that I awake
 ED
 I feel like a card board cut-out man
 ACGBb
 so build me a time where charters ryme
 FA
 and the story line is kind

 ED
 I've aged and aged since the first page
 ED
 I read every line that you wrote
 E
 take me down take me down
 D
 from the shelf above your head
 ACGBb
 and build me a time where charters ryme
 FA
 and the story line is kind

SOLO

 ED
 I've lived in the left on the shelf like the rest
 ED
 and the epilogue reads like a sad song
 ED
 please pick up your camera and use me again
 ACGBb
 and build me a time when the charters ryme
 FA
 and the story line is kind

 EDEDEDACGBbFA

10.More Blues

can't figure this one out.

11.Quick Silver

no guitar.

12.A Spanish Piece

can't figure out.

13.Dramatic Theme

no guitar.


A A# Am B Bb Bm C C# D D# E Em F F# Fmaj7 G G#
variations - click chord images
Transpose chords:
Tuning:
Cool service:
View: Size:
A  A  A
Rating:
Layout:
  • Currently 2.4/5 Stars.
  • 1
  • 2
  • 3
  • 4
  • 5
 
Accuracy:
  • Currently 2.6/5 Stars.
  • 1
  • 2
  • 3
  • 4
  • 5
 
click stars to rate
Chordie recommends:
Check out JamPlay.com for online video guitar lessons
Songbook:
Login to add this song to your songbook
Support the artist
Preview/buy this song
MSN Music
Why this non-profit ad?

 
login to add comments/video/corrections