Guitar Tabs, Chords and Lyrics


Bring The Boys Back Home   Pink Floyd



     Bring the boys back home
E|-0-----------2---------3-----------|
B|-1-----------3---------0-----------|
G|-0-----------2---------0-----------|
D|-2-----------0---------0-----------|
A|-3---------------------2-----------|
E|-----------------------3-----------|

     Bring the boys back home
E|-0-----------2---------3-----------|
B|-1-----------3---------0-----------|
G|-0-----------2---------0-----------|
D|-2-----------0---------0-----------|
A|-3---------------------2-----------|
E|-----------------------3-----------|

     Dont leave the children home alone
E|-0----------------2---------3---3---0-----|
B|-1----------------3---------0---0---1-----|
G|-0----------------2---------0---0---0-----|
D|-2----------------0---------0---0---2-----|
A|-3--------------------------2---0---3-----|
E|----------------------------3---2---------|

     Bring the boys back home
E|-0-----------2---------0-----------|
B|-1-----------3---------0-----------|
G|-0-----------2---------0-----------|
D|-2-----------0---------2-----------|
A|-3---------------------2-----------|


Important: The song above is NOT stored on the Chordie server. The original song is hosted at www.guitaretab.com. Chordie works as a search engine and provides on-the-fly formatting. Chordie does not index songs against artists/composers will. To remove this song please click here.

This song is displayed as text-only. Transposing and tuning is only available for chordpro-songs.

Login - add to songbook

Rating click stars to rate

Layout
Accuracy

SHARE PAGE  




You need to log in to post comments