Guitar Tabs, Chords and Lyrics


Who Knew  Pink

E------------0-------------|


B--2--2--2------2--2-------|


G---2--2--2---2--2---------|

D--------------------------|
A--------------------------|
E--------------------------| X2
[A]You took my hand You showed me how
You promised me you'd be ar[Bm]ound
Uh [F#m7]huh That's [E]right
[A]I took your words And I believed
In everything You said to[D] me
Yeah huh That's [E]right
CHORUS:
If s[D]omeone said [E]three years from [F#m]now
You'd be [A]long gone
I'd [D]stand up and [E]punch them [F#m]out
Cause they're [A]all wrong
[D]I know [E]better [F#m]Cause you [A]said forever
[D]And ever
[E]Who knew

VERSE2:
[A]Remember when we were such fools
And so convinced and just too [D]cool
Oh no No [E]no
[A]I wish I could touch you again
I wish I could still call you [D]friend
I'd give any[E]thing

CHORUS2:
When[D] someone said [E]count your blessings [F#m]now
'fore they're [A]long gone
I [D]guess I just [E]didn't know [F#m]how
I was [A]all wrong
[D]They knew [E]better [F#m]Still you s[A]aid forever
[D]And ever
[E]Who knew

[A]Yeah yeah

BRIDGE:
[D]I'll keep you [E]locked in my head
[F#m]Until we [A]meet again
[D]Until we [E]Until we [F#m]meet again[A]
[D]And I won't for[E]get you my friend
[F#m]What happened  [A]

CHORUS3:
If s[D]omeone said [E]three years from [F#m]now
You'd be [A]long gone
I'd s[D]tand up and [E]punch them [F#m]out
Cause they're [A]all wrong and
[D]That last kiss [E]I'll cherish [F#m]Until we [A]meet again
[D]And time makes [E]It harder [F#m]I wish I co[A]uld remember
[D]But I keep [E]Your memory [F#m]You visit [A]me in my sleep
[D]My darling [E]Who knew

[A]My darling, my darling
[A]Who knew, my darling
[A]I miss you, my darling
[A]Who knew, who knew

OUTRO:
E------------0--------------------0------------|

B--2--2--2-------2--2---2--2--2-------2--2-----|
G---2--2--2----2--2-------2--2--2---2--2-------|
D----------------------------------------------|
A----------------------------------------------|
E----------------------------------------------|
E------------0--------------------0------------|
B--2--2--2-------2--2---2--2--2-------2--2-----|
G---2--2--2----2--2-------2--2--2---2--2-------|
D----------------------------------------------|
A----------------------------------------------|
E----------------------------------------------|

END


*~~&&

Important: The song above is NOT stored on the Chordie server. The original song is hosted at www.guitaretab.com. Chordie works as a search engine and provides on-the-fly formatting. Chordie does not index songs against artists/composers will. To remove this song please click here.

Text color:
Chord color:
Chord grids: 
Font size:    
Page size: 

A Bm D E F#m F#m7
variations - click chord images

Login - add to songbook

Transpose chords

Tuning

Rating click stars to rate

Layout
Accuracy

SHARE PAGE  




You need to log in to post comments