Guitar Tabs, Chords and Lyrics


Teenage History   Pinwheels



intro    e------------------------------------------------------|
         b------------------------------------------------------|
         g------------------------------------------------------|
4 time   d-----4-4--7-----------5-------4----5--------5-4-0-----|
         a-5-5--------------7-7-----2-2---2------0--0-----------|
         e-------------5-5--------------------------------------|


verse   e--------------------------------------------------|
        b--------------------------------------------------|
        g----7-----------12--11----------------------------|
        d----7---7---9---12--11----------------------------|
        a----5---7---9---10--9-----------------------------|
        e--------5---7-------------------------------------|


chours  e-------------------------------------------------|
        b-------------------------------------------------|
        g--11---12----7-----------------------------------|
        d--11---12----7---7-------------------------------|
        a--9----10----5---7-------------------------------|


Important: The song above is NOT stored on the Chordie server. The original song is hosted at www.guitaretab.com. Chordie works as a search engine and provides on-the-fly formatting. Chordie does not index songs against artists/composers will. To remove this song please click here.

This song is displayed as text-only. Transposing and tuning is only available for chordpro-songs.

Login - add to songbook

Rating click stars to rate

Layout
Accuracy

SHARE PAGE  




You need to log in to post comments