Guitar Tabs, Chords and Lyrics


As Seen On Tv   Pitchshifter



Song: As Seen On TV
Artist: Pitchshifter
Album:Deviant
Tuning: Low to high D-G-D-G-B-E (Just drop your E and
        A strings down 1 step)

This is my first tab and i only did because i couldn't
find any pitchshifter tabs at all!!! (What is wrong
with you people). Almost 100% correct i think really
easy and listen to the song for the rhythm. ill be
tabbing more pitchshifter song pretty soon but until
then you'll just have to sit tight. 

Riff A:
E------------------------------------------------------
B------------------------------------------------------
G--5-77-5-77-5-7b8--5555--666--------------------------
D------------------------------------------------------
G------------------------------------------------------
D------------------------------------------------------

Riff B:
E------------------------------------------------------
B------------------------------------------------------
G------------------------------------------------------
D------------------------------------------------------
G--5-77-5-77-5-7b8--5555--666--------------------------
D------------------------------------------------------

Riff C:
E------------------------------------------------------
B------------------------------------------------------
G----8------------------8------------------------------
D----8------------------8------------------------------
G----8------8-8--8-8--8-8----8-8--8-8--8---------------
D----6------6-6--6-6--6-6----6-6--6-6--6---------------

Riff D:
E------------------------------------------------------
B------------------------------------------------------
G------------------------------------------------------
D------------------------------------------------------
G--8-8--8-8--8-8--5-5--5-5--5--8-8--8-8--8-8--11-11--11
D--6-6--6-6--6-6--3-3--3-3--3--6-6--6-6--6-6---9--9---9

E------------------------------------------------------
B------------------------------------------------------
G------------------------------------------------------
D------------------------------------------------------
G--11--11----------------------------------------------
D---9---9----------------------------------------------

Riff E:
E------------------------------------------------------
B------------------------------------------------------
G------------------------------------------------------
D------------------------------------------------------
G--11-----5-5-5-5-5-5-5-5-8-5-8------------------------
D---9-----0-0-0-0-0-0-0-0-6-0-6------------------------

Riff F:
E------------------------------------------------------
B------------------------------------------------------
G------------------------------------------------------
D------------------------------------------------------
G--7-7-7-7-7-7-7-7--10-10-10-10------------------------
D--5-5-5-5-5-5-5-5---8--8--8--8------------------------


Riff G:
E------------------------------------------------------
B------------------------------------------------------
G---9-9-9-9-10-10-10-10-9-9-9-9------------------------
D-------------------------------10-10-10-10------------
G------------------------------------------------------
D------------------------------------------------------

Order:
Riff A X4
Riff A + B X4
Riff C X1
Riff A + B X2
Riff C X1
Riff A + B X2
Riff D X1
Riff A + B X2
Riff D X1
Riff E X3
Riff F X1
Riff C X1
Riff A + B X2
Riff C X1
Riff A + B X2
Riff D X1
Riff A + B X2
Riff D X1
Riff E X3
Riff F X1
Riff G X2
Riff A X2
Riff A + B X2
Riff E X3
Riff F X1
Riff E X3


Important: The song above is NOT stored on the Chordie server. The original song is hosted at www.guitaretab.com. Chordie works as a search engine and provides on-the-fly formatting. Chordie does not index songs against artists'/composers' will. To remove this song please click here.

This song is displayed as text-only. Transposing and tuning is only available for chordpro-songs.

Login - add to songbook

Rating click stars to rate

Layout
Accuracy

SHARE PAGE  




You need to log in to post comments