Guitar Tabs, Chords and Lyrics


Whiteout   Pitchshifter



"Whiteout" by Pitch Shifter
from Infotainment? ('96)

tuning - high to low: DAFCGD (down 1 whole step)

intro bass riff
   3x
F |----------------------------------|----------------------------------|
C |*--------------------------------*|----------------------------------|
G |*------------------------5---7---*|----------------------------------|
D |-3p0---0---0-0-0---0---0----------|-3p0---0---0-0-0---0---0-0--------|


d |----------------------------------|----------------------------------|
A |----------------------------------|----------------------------------|
F |----------------------------------|----------------------------------|
C |----------------------------------|----------------------------------|
G |---2-2-2-2-----2-2-2-2-2-2--------|-5---------2---2-2----------------|
D |---0-0-0-0-----0-0-0-0-0-0--------|-3---------0---0-0----------------|


main riffs                     ???
d |------------------|-----------------------------|
A |------------------|-----------------------------|
F |------------------|-----------------------------|
C |------------------|-----------------------------|
G |-2---2-2-2-2-2----|-5-----2---7---9----2---2-2--|


Important: The song above is NOT stored on the Chordie server. The original song is hosted at www.guitaretab.com. Chordie works as a search engine and provides on-the-fly formatting. Chordie does not index songs against artists'/composers' will. To remove this song please click here.

This song is displayed as text-only. Transposing and tuning is only available for chordpro-songs.

Login - add to songbook

Rating click stars to rate

Layout
Accuracy

SHARE PAGE  




You need to log in to post comments