eToCache5 = ""; ?> Monkey Gone To Heaven by Pixies - guitar chords, guitar tabs and lyrics - chordie

Monkey Gone To Heaven

Pixies

-------------------------------------------------------------------------------

-------------------------------------------------------------------------------

 EF#F#A

Verse 1

 A
 There was a guy.........
 F#A
 An underwater guy who controlled the sea
 DBD
 He was killed by ten million pounds of sludge from new york and new jersey

Chorus

 D
  This monkeys gone to heaven     This monkeys gone to heaven
 D
  This monkeys gone to heaven     This monkeys gone to heaven

 EF#F#A
Solo 1

e|-0-0-0-2-2-2-2-2----------| x 4
B|-2-2-2-3-3-3-3-3----------|
G|--------------------------|
D|--------------------------|
A|--------------------------|
E|--------------------------|


Verse 2

 DBDE
 The creature in the sky   Got sucked in a hole
 F#F#ADBD
 Now there's a hole in the sky               
 EF#F#AD
And the ground's not cold and if the ground's not cold
 BD
Everything is gonna burned, we'll all take turns, I'll get mine soon

Chorus 2

 D
  This monkeys gone to heaven     This monkeys gone to heaven
 D
  This monkeys gone to heaven     This monkeys gone to heaven

 EF#F#A
 Rock me Joe!

Solo 2

e|-0-0-0-2-2-2-2-2----------| x 8
B|-2-2-2-3-3-3-3-3----------|
G|--------------------------|
D|--------------------------|
A|--------------------------|
E|--------------------------|


Verse 3

 DBDE
 If man is five, if man is five, if man is five
 D
Then the devil is six and if the devil is six, if the devil is six, the devil
 E
is six
 D
and if the devil is six then god is seven, then god is seven, then god is
 E
 seven

Chorus 3 x 2

 D
  This monkeys gone to heaven     This monkeys gone to heaven
 D
  This monkeys gone to heaven     This monkeys gone to heaven

Ending

 EF#F#AD
   This monkeys gone to heaven

That's it


A B D E F#
variations - click chord images
Transpose chords:
Tuning:
Cool service:
View: Size:
A  A  A
Rating:
Layout:
  • Currently 2.4/5 Stars.
  • 1
  • 2
  • 3
  • 4
  • 5
 
Accuracy:
  • Currently 2.7/5 Stars.
  • 1
  • 2
  • 3
  • 4
  • 5
 
click stars to rate
Chordie recommends:
Learn to play this song & others via video guitar lessons at JamPlay.com
Songbook:
Login to add this song to your songbook
Support the artist
Preview/buy this song
MSN Music
Why this non-profit ad?

 
login to add comments/video/corrections