Chordie logo


Special Needs   Placebo



Title : Special Needs
Artist : Placebo
Album : Sleeping With Ghosts 2003
Composer : Brain Molko

They are to different ways of playing this song, one with normal tuning and the other 
Placebo's tuning.

*****1*****
___________

Tuning : Normal (E A D G B e)


Intro : (Guitar 2 - clean)

e |------------------------------------------------------------             e |-------------------------------------|
B |------------------------------------------------------------             B |-------------------------------------|
G |------------------------------------------------------------             G |-------------------------------------|
D |------------------------------------------------------------  X3    OR   D |-----3-3-3-3-3h4-4----4-4------------|
A |--------6-6-6-6-6h7-7----7-------(7)-(7)--------------------             A |---------------------------4-4-4-4-4-|
E |---0--0----------------0---7-7-7-7-7------------------------             E |-2-2--------------2------------------|

Verse (Guitar 2) :

e |------------------------------------------------------------|
B |------------------------------------------------------------|
G |------------------------------------------------------------|
D |------------------------------------------------------------|  X4
A |--------6-6-6-6-6h7-7----7-------(7)-(7)--------------------|
E |---0--0----------------0---7-7-7-7-7------------------------|


Chorus (Guitar 1)

     (Just nineteen and sucker's dream....)
e |------------------------------------------------------------|
B |------------------------------------------------------------|
G |--9/6-6-6-6-6-6-6-6-6-6-6-6-6-------9-9-9-9-9-9-9-9-9-9-9---|
D |--9/6-6-6-6-6-6-6-6-6-6-6-6-6-------9-9-9-9-9-9-9-9-9-9-9---|
A |--7/4-4-4-4-4-4-4-4-4-4-4-4-4-------7-7-7-7-7-7-7-7-7-7-7---|
E |------------------------------------------------------------|


Verse (Guitar 2)

e |------------------------------------------------------------|
B |------------------------------------------------------------|
G |------------------------------------------------------------|
D |------------------------------------------------------------|  X4
A |--------6-6-6-6-6h7-7----7-------(7)-(7)--------------------|
E |---0--0----------------0---7-7-7-7-7------------------------|

Chorus X2

Verse

Chorus X2

****** 2 ******
_______________


Guitar 1 - Clean :

Intro/Verse
C  |-------------------------------------------------------|
C  |-------------------------------------------------------|
G# |-------------------------------------------------------|
D# |-------------------------------------------------------| X6
A# |------8-8-8-8-8h9-9---9/4-4-4-4-4----4-----------------|
F  |--0-0---------------0-------------(0)-(0)--------------|


Chorus

       Q  Q  Q  Q  Q  Q  Q  Q
C  |----------------------------------|
C  |----------------------------------|
G# |---6--6--6--6/-9--9--9--9---------|
D# |---6--6--6--6/-9--9--9--9---------|  X4
A# |---4--4--4--4/-7--7--7--7---------|
F  |----------------------------------|


Intro/verse agian

Choros

And that's it.
I really love that song and it's fun to play it.


Important: The song above is NOT stored on the Chordie server. The original song is hosted at www.guitaretab.com. Chordie works as a search engine and provides on-the-fly formatting. Chordie does not index songs against artists/composers will. To remove this song please click here.

This song is displayed as text-only. Transposing and tuning is only available for chordpro-songs.

Login - add to songbook

Rating click stars to rate

Layout
Accuracy

SHARE PAGE  




You need to log in to post comments